Song name
# A B C D E F G H I J K L M N O P Q R S T U V W X Y Z

Misc Unsigned Bands - Big Boom - Oh Crap tab

I made this song with a friend and i think its ok
well here it is

e:--------------------------------------------------------------------------|
b:--------------------------------------------------------------------------|
g:--------------------------------------------------------------------------|
d:--------------------------------------------------------------------------|
a:------------------3-5------4-5------------------------7-7-7-7-7-7-7-7-7-7-|
E:--4-7---2-5---3-6------7-8------7-7-7-7-7-7-7-7-7-7-7---------------------|

e:-------------------------------------------------7-7-7-7-7-7------------|
b:-----------------------------------7-7-7-7-7-7-7------------------------|
g:-------------------7-7-7-7-7-7-7-7--------------------------------------|
d:-7-7-7-7-7-7-7-7-7------------------------------------------------------|
a:------------------------------------------------------------------------|
E:------------------------------------------------------------------------|

e:------------------------------------------------------------------------|
b:------------------------------------------------------------------------|
g:------------------------------------------------------------------------|
d:-------33---------555---------------------------------------------------|
a:3--3---22--5--5---444---------------------------------------------------|
E:2--2-------4--4---------------------------------------------------------|
Tap to rate this tab
 
# A B C D E F G H I J K L M N O P Q R S T U V W X Y Z