Guitaretab - guitar tabs
Song name
# A B C D E F G H I J K L M N O P Q R S T U V W X Y Z

Misc Unsigned Bands - Seth Lilly - Math Ninja tab

Song: "Math Ninja"                                          |
Artist: Seth Lilly                                          |
Tabbed by: SethMegadefan (Seth Lilly)                       |
Find the original tune at either                            |
http://www.myspace.com/sethlilly/                           |
OR                                                          |
http://www.soundclick.com/bands/pagemusic.cfm?bandID=672677 |
============================================================

====================================================
Tablature notation:                                 |
16b18            Bend 16th fret to pitch of 18th    |
16h18            Hammeron 16th fret to 18th         |
18p16            Pull off 18th fret to 16th         |
16~~~            Vibrato 16th fret                  |
3\1              Slide from 3rd fret down to 1st    |
  *              Palm mute                          |
Everything else should be explained in the tab      |
====================================================

If you have any questions, comments, or corrections, you can contact me at 
Rock on!

Standard Tuning (EADGBE) for all guitar parts

Guitar 1 (clean)
[0:00]
|----------------|----------------|----------------|----------------|
|----------------|----------------|----------------|----------------|
|----------------|----------------|----------------|----------------|
|----2-----------|----2-----------|----2-----------|----2-----------|
|--------3---2-1-|--------3---2-1-|--------3---2-1-|--------3---2-1-|
|0-0---0---0-----|0-0---0---0-----|0-0---0---0-----|0-0---0---0-----|
p.m. throughout

Guitar 1
[0:08]
|----------------|----------------|----------------|----------------|
|----------------|----------------|----------------|----------------|
|----------------|----------------|----------------|----------------|
|----2-----------|----2-----------|----2-----------|----2-----------|
|--------3---2-1-|--------3---2-1-|--------3---2-1-|--------3---2-1-|
|0-0---0---0-----|0-0---0---0-----|0-0---0---0-----|0-0---0---0-----|
|p.m. throughout                                                    |
|Guitar 2 (clean w/tremolo effect)                                  |
|<12>------------|----------------|----------------|----------------|
|<12>------------|----------------|----------------|----------------|
|<12>------------|----------------|----------------|----------------|
|----------------|----------------|----------------|----------------|
|----------------|----------------|----------------|----------------|
|----------------|----------------|<12>------------|----------------|


|----------------|----------------|----------------|----------------|
|----------------|----------------|----------------|----------------|
|----------------|----------------|----------------|----------------|
|----2-----------|----2-----------|----2-----------|----2-----------|
|--------3---2-1-|--------3---2-1-|--------3---2-1-|--------3---2-1-|
|0-0---0---0-----|0-0---0---0-----|0-0---0---0-----|0-0---0---0-----|
|* * * * * * * *  * * * * * * * *  * * * * crescendo================|
|<7>-------------|----------------|----------------|----------------|
|<7>-------------|----------------|----------------|----------------|
|<7>-------------|----------------|----------------|----------------|
|----------------|----------------|----------------|----------------|
|----------------|----------------|----------------|----------------|
|----------------|----------------|<12>------------|----------------|

[ Tab from: http://www.guitaretab.com/m/misc-unsigned-bands/92364.html ]
"Math Ninja" chant riff
[0:21]/[1:09]
|----------------|----------------|----------------|----------------|
|----------------|----------------|----------------|----------------|
|----------------|----------------|----------------|----------------|
|----2-----------|----2-----------|----2-----------|----2-----------|
|--------3---2-1-|--------3---2-1-|--------3---2-1-|--------3---2-1-|
|0-0---0---0-----|0-0---0---0-----|0-0---0---0-----|0-0---0---0-----|

|----------------|----------------|----------------|----------------|
|----------------|----------------|----------------|----------------|
|----2---3---2-1-|----2---3---2-1-|----2---3---2-1-|----2---3---2-1-|
|----------------|----------------|----------------|----------------|
|0-0---0---0-----|0-0---0---0-----|0-0---0---0-----|0-0---0---0-----|
|----------------|----------------|----------------|----------------|


|----------------|----------------|----------------|----------------|
|----------------|----------------|----------------|----------------|
|----------------|----------------|----------------|----------------|
|----2-----------|----2-----------|----2-----------|----2-----------|
|--------3---2-1-|--------3---2-1-|--------3---2-1-|--------3---2-1-|
|0-0---0---0-----|0-0---0---0-----|0-0---0---0-----|0-0---0---0-----|


|----------------|----------------|----------------|----------------|
|----------------|----------------|----------------|--4-4-4-4-4-4-4-|
|----------------|--------8-8-8-8-|----------------|--4-4-4-4-4-4-4-|
|5-5-5-5-5-5-5\--|3-3-3-3-8-8-8-8-|----2-----------|--4-4-4-4-4-4-4-|
|5-5-5-5-5-5-5\--|3-3-3-3-6-6-6-6-|--------3---2-1-|--2-2-2-2-2-2-2-|
|3-3-3-3-3-3-3\--|1-1-1-1---------|0-0---0---0-----|----------------|


Verse riff
[0:44]/[1:32]
|----------------|----------------|----------------|----------------|
|----------------|----------------|----------------|----------------|
|----------------|----------------|----------------|----------------|
|2-----2-----2-2-|2-----2-----2-2-|5-5-5-5-5\--3---|2-----2-----2---|
|2-----2-----2-2-|2-----2-----2-2-|5-5-5-5-5\--3---|2-----2-----2---|
|0-0-0-0-0-0-0-0-|0-0-0-0-0-0-0-0-|3-3-3-3-3\--1---|0-0-0-0-0-0-0-0-|
   * *   * *        * *   * *                         * *   * *   *

|----------------|----------------|----------------|----------------|
|----------------|----------------|----------------|----------------|
|----------------|----------------|----------------|----------------|
|2-----2-----2-2-|2-----2-----2-2-|5-5-5-5-5\--3---|2-----2-----2---|
|2-----2-----2-2-|2-----2-----2-2-|5-5-5-5-5\--3---|2-----2-----2---|
|0-0-0-0-0-0-0-0-|0-0-0-0-0-0-0-0-|3-3-3-3-3\--1---|0-0-0-0-0-0-0-0-|
   * *   * *        * *   * *                         * *   * *   *

|----------------|----------------|----------------|----------------|
|----------------|----------------|----------------|----------------|
|3-3-3-3-3-3-3-3-|----------------|3-3-3-3-3-3-3-3-|----------------|
|3-3-3-3-3-3-3-3-|2-----2-----2---|3-3-3-3-3-3-3-3-|2-----2-----2---|
|1-1-1-1-1-1-1-1-|2-----2-----2---|1-1-1-1-1-1-1-1-|2-----2-----2---|
|----------------|0-0-0-0-0-0-0-0-|----------------|0-0-0-0-0-0-0-0-|
                    * *   * *   *                     * *   * *   )

|----------------|----------------|----------------|----------------|
|----------------|----------------|----------------|----------------|
|3-3-3-3-3-3-3---|--------8-8-8-8-|----------------|----------------|
|3-3-3-3-3-3-3---|3-3-3-3-8-8-8-8-|----2-----------|----------------|
|1-1-1-1-1-1-1---|3-3-3-3-6-6-6-6-|--------3---2-1-|2-1-2-3-2-1-2-3-|
|----------------|1-1-1-1---------|0-0---0---0-----|----------------|

[repeat "Math Ninja" chant riff and Verse riff]

[1:57]
|----------------|----------------|----------------|----------------|
|----------------|----------------|----------------|----------------|
|----------------|----------------|----------------|----------------|
|2-2-2-2-2-2-2-2-|2-2-2-2-2-2-2-2-|2-2-2-2-2-2-2-2-|2-2-2-2-2-2-2-2-|
|2-2-2-2-2-2-2-2-|2-2-2-2-2-2-2-2-|2-2-2-2-2-2-2-2-|2-2-2-2-2-2-2-2-|
|0-0-0-0-0-0-0-0-|0-0-0-0-0-0-0-0-|0-0-0-0-0-0-0-0-|0-0-0-0-0-0-0-0-|
|                                                                   |
|Guitar 2 (slight distortion)                                       |
|----------------|0---------------|----------------|----------------|
|----------------|--------0-------|----------------|----------------|
|----------------|--------------0\|--/
Related for Seth Lilly - Math Ninja tab
Advertisement will be closed in 10 seconds