Guitaretab - guitar tabs
Song name
# A B C D E F G H I J K L M N O P Q R S T U V W X Y Z

Misc Unsigned Bands - La Mesa - The Whorewoods tab

Song- La Mesa
Band- The Whorewoods
Guitarist- Brett Skaret
Tabbed By- Skaret Top


Verse:                   

e/----------------/      e/----------------/
b/----------------/      b/----------------/
g/-7~~~~5555------/      g/-7~~~~5555------/
d/-7~~~~5555-5555-/  X3  d/-7~~~~5555-9999-/  4th time
a/-5~~~~3333-5555-/      a/-5~~~~3333-9999-/
e/-----------3333-/      e/-----------7777-/
        .... ....                .... ....   


Chorus:

e/--------------------------------------------------------------------------/
b/--------------------------------------------------------------------------/
g/-9~999999----------9~999999-----------9-9-9-XX----------------------9-9-9-/
d/-9~999999-7~777777-9~999999-66666666--9-9-9-XX-11-11-11-XX-7-7-7-XX-9-9-9-/
a/-7~777777-7~777777-7~777777-66666666--7-7-7-XX-11 11 11 XX-7-7-7-XX-7-7-7-/
e/----------5~555555----------44444444-----------9--9--9--XX-5-5-5-XX-------/


Bridge:
[ Tab from: http://www.guitaretab.com/m/misc-unsigned-bands/92454.html ]
e/------------------------------------------------------------------/
b/------------------------------------------------------------------/
g/------------------9~~~~~~~~~~~~~~~------------------9999-11111111-/
d/-9~~~~~~~~~~~~~~~-9~~~~-7~~~~~~~~~~~~~~~-9999-11111111-/  X2
a/-9~~~~-7~~~~~~~~~~~~~~~-7~~~~-7777-9-9-9-9--/
e/-7~~~~~~~~~~~~~~~------------------5~~~~~~~~~~~~~~~---------------/


Chorus Build-Up:

e/----------------------------------------------/
b/----------------------------------------------/
g/-99999999----------99999999----------99999999-/
d/-99999999-77777777-99999999-66666666-99999999-/
a/-77777777-77777777-77777777-66666666-77777777-/
e/----------55555555----------44444444----------/
   ........ ........ ........ ........ ........ /

Build-Up pt.2:

e/---------------------------------/
b/---------------------------------/
g/---------------------------9-9-9-/
d/-1111111111111111-77777777-9-9-9-/
a/-1111111111111111-77777777-7-7-7-/
e/-9-9-9-9-9-9-9-9--55555555-------/
   . . . . 


End Chorus:

e/------------------------------------------------------------------------/
b/------------------------------------------------------------------------/
g/-99999999----------99999999----------99999999---------------------------/
d/-99999999-77777777-99999999-66666666-99999999-1111111111111111-77777777-/
a/-77777777-77777777-77777777-66666666-77777777-1111111111111111-77777777-/
e/----------55555555----------44444444----------9-9-9-9-9-9-9-9--55555555-/

End On:

e/-------/
b/-------/
g/-9-9-9-/
d/-9-9-9-/
a/-7-7-7-/
e/-------/



Song Order:

Verse 
Chorus 
Verse
Chorus
Bridge
Chorus Build-Up
End Chorus





Related for La Mesa - The Whorewoods tab
×
La Mesa - The Whorewoods