Song name
# A B C D E F G H I J K L M N O P Q R S T U V W X Y Z

Misc Unsigned Bands - No Boundariez - As You Please tab

No Boundariez_As You Please

VERSE x8                 do this on the eight one
E---------------------|------------------------------------------|
B---------------------|------------------------------------------|
G---------------------|------------------------------------------|
D---------------------|------------------------------------------|
A---------------------|---------------------0--------(0)-------0-|
E-0-0-3-5--0-0-0-0-3-5|0-0-3-5--0-0-0-0-3-5-0--------(0)-------0-|

SOLO
E------------------|---------------|----------------|
B------------------|---------------|----------------|
G------------------|---------------|----------------|
D------------------|-----x4--------|----------------|
A--------x4--------|0-0-2-0-4-0-6-5|------x4--------|
E-0-0-2-0-4-0-6-5--|---------------|0-0-2-0-4-0-6-5-|

OUTRO
E------------------------|
B------------------------|
G-1----(1)---whammy bar~~|
D-2----(2)---------------|
A-2----(2)---------------|
E-0----(0)---------------|

Order

VERSE
SOLO
VERSE
OUTRO

thats it its the first song we wrote in like 6th grade so...enjoy!

www.myspace.com/noboundariez
www.freewebs.com/noboundariez
Tap to rate this tab
# A B C D E F G H I J K L M N O P Q R S T U V W X Y Z