Song name
# A B C D E F G H I J K L M N O P Q R S T U V W X Y Z

Misc Unsigned Bands - Through Blind Eyes - Marionette Priest tab

                               Marionette Priest
                               Through Blind Eyes

(D G C F A D)
listen to song for timing
/-tremolo picking
Intro 2x
--------------------------------------------------------------------|
--------------------------------------------------------------------|
--------------------------------------------------------------------|
--------------------------------------------------------------------|
--0---55447788775577--0--55447788775577--7-7788101088777788---------|
--0-------------------0------------------7--------------------------|
  .                   .                  .
                           4x
-------------------------|-------------------------------------------------|
-------------------------|-------------------------------------------------|
-------------------------|-------------------------------------------------|
------------33----22-----|-------/----/-/-/--------------------------------|
--5-557788-----44----33--|-/--/--5- /--8- 7--/-----------------------------|
--5----------------------|-0--3-----6--------8-----------------------------|
  .
Verse 1  2X
---------------------------------------------------------|-------------------|
---------------------------------------------------------|-------------------|
----------------5---------------------------7--8---7--5--|--5-------4--------|
---------8-------7--------------------8------8--10--8--7-|----6-5-----6-3----|
--55----------------------------55-----------------------|--------7-------5--|
------000--0-000----00-000-000-----000--000--------------|-------------------|
      ...  . ...    .. ... ...     ...  ...
Riff                             2x  then   2x
--------------------------------------|--------------------------------------|
--------------------------------------|--------------------------------------|
--------------------------------------|--------------------------------------|
-----5-3----4-3------4-3--------------|-----7-5----7-5-----7-5-------5-------|
---------------5--------4-5-4---5-----|---------------7-------7-8-7----8-7---|
-000--0--000-----000----------6---6-5-|--000-0--000-----000---------5--------|
 ...  .  ...     ...                     ... .  ...     ...

Pre-Chorus  "You shall reach for heaven and, fall...."

----------------------------------------------------------------------------|
----------------------------------------------------------------------------|
-------------------/-/------------------------------------------------/-----|
-7-----5--787---/--5-7--2-3----------3-5----5-8----7----5--787-----/--5-----|
----------------8--------------------------------------------------8--------|
--0-000--0---000----------33-333-333---555--------0--000--0---000-----------|
  . ...  .   ...          .. ... ...   ...        . ...  .   ...
--------------------------|
----------------/-/-/-----|
-2-3------------7-8-5-----|
--------------------------|
-----33-333-333-----------|
     .. ... ...

-----------------------------------------------------------------------------|
-----------------------------------------------------------------------------|
-------------------/--------------------------------------------------/-/----|
-7-----5--787---/--5---2-3----------3-5----5-8----7-----5--787-----/--5-7----|
----------------8--------------------------------------------------8---------|
--0-000--0---000----------33-333-333---555---------0-000--0---000------------|
  . ...  .   ...          .. ... ...   ...         . ...  .   ...
--------------------|
--------------------|
--------------------|
--/-/-/-/-----------|
--3-2-7-5-----------|
--------------------|

Chorus 4x "Why would you give your life to be..."
(tremolo over all the notes, too lazy to / all of them)
-------------------------------------------------------------------|
-------------------------------------------------------------------|
-------------------------------------------------------------------|
---8---7--3-2---5--------------------------------------------------|
-5---5------------8-7----------------------------------------------|
-------------------------------------------------------------------|

break down 4x
------------------------------------------------------------------------|
------------------------------------------------------------------------|
------------------------------------------------------------------------|
------------------------------------------------------------------------|
-2-2-2-2--5-0-4-00-5---4-2-2222-2-2-2-2--5-0-4-00-5---4--22-------------|
-0-0-0-0--3-0-2-00-3-0-2-0-0000-0-0-0-0--3-0-2-00-3-0-2--00-------------|
   . . .    .   ..   .   . ....   . . .    .   ..   .    ..

chugging riff   whole thing 2 x
all palm muted except the /'s
------------------------------------------------------------|---------------|
------------------------------------------------------------|---------------|
------------------------------------------------------------|---------------|
------------------------------------------------------------|---------------|
-222-222-222-222-------------------222-222-222-222--/-/-/-/-|-----5---------|
-000-000-000-000--333-222-666-555--000-000-000-000--3-2-5-8-|-353---65--131-|
                                                              ...       ...
------------------|
------------------|
------------------|
------------------|
1-----------------|
--32--------------|
then..4x
---------------------------------------------------------------------------|
---------------------------------------------------------------------------|
---------------------------------------------------------------------------|
---------------------------------------------------------------------------|
--------5---------5---------5------------------1--------1--------1-----1---|
-353653---6-5-356---6-5-356---6-5-356---130310---32-013---32-013--32-1---3-|
 ......       ...       ...       ...   ......      ...      ...  .. .

play these three right before you play chorus
------------------|
------------------|
------------------|
---1--3--5--------|
------------------|
------------------|

-Chorus- 4x

Bridge 4X
--------------------------------------------------------------------------|
--------------------------------------------------------------------------|
--------------------------------------/-/---------------------------------|
-1----3----5--6----5---3--5----3--1---5-3-/-/-----------------------------|
--3----5----6--8----6---5--6----5--3------6-5-----------------------------|
----0----0-------0----0------0---0----------------------------------------|
    .    .       .    .      .   .

2X
--------------------------------------------|---------------------------|
--------------------------------------------|---------------------------|
------------------------------------/-/-----|---------------------------|
--7---8----7--5--3---2--3----5--7---7-5-/-/-|-7-5-----------------------|
---8---10---8--7--5---3--5----7--8------8-7-|-----8-7~------------------|
----0----0------0---0------0----------------|---------------------------|
    .    .      .   .      .
-Chorus-
Outro  same as chorus only higher scale (/)
-------------------------------------------------------------|
-------------------------------------------------------------|
-------------------------------------------------------------|
----13----12--8-7--10----------------------------------------|
-10----10-------------13-12----------------------------------|
-------------------------------------------------------------|

and that is how you play marionette priest
Ryan Cameron -Through Blind Eyes
Tap to rate this tab
# A B C D E F G H I J K L M N O P Q R S T U V W X Y Z