Song name
# A B C D E F G H I J K L M N O P Q R S T U V W X Y Z

Misc Unsigned Bands - Viricidal - Its Raining Cats And Dogs tab

Ok so this is how i (Cody) play the song



Intro
D|-------------------------------------------|
A|-------------------------------------------|
F|-------------------------------------------|
C|-----------------------------------0000----|x8
G|-----------------------------------0000----|
C|---4444-7777-3333-6666-2222-5555---0000----|
                                     ....

And do a little pause on the 4th set


Bridge thing
D|------------------------------------------------------|
A|------------------------------------------------------|
F|-------------------------------------7h10-9h12-10h13--|
C|----------------------------------6h9-----------------|x5
G|---------7---------7h8p7-------7----------------------|
C|---0000-8--000000-8------0000-8-----------------------|
     .... .  ...... .      .... . 


Right before breakdown
D|-------------------------------------------------------|
A|-------------------------------------------------------|
F|-------------------------------------------------------|
C|---0-----------1--0-------------------/----------------|x1
G|---0-----------1--0---(get nasty...)-/-slide down------|
C|---0-----------1--0-----------------/------------------|
                                          

Breakdown
D|--------------------------|
A|--------------------------|
F|--------------------------|
C|---0---000--0-0-000-------|x2
G|---0---000--0-0-000-------|
C|---0---000--0-0-000-------|
     .   ...  . . ... 

The Just let the 0's ring
D|-------------------------------|
A|-------------------------------|
F|-------------------------------|
C|---0~---000~--0~-0~-000~-------|x4
G|---0~---000~--0~-0~-000~-------|
C|---0~---000~--0~-0~-000~-------|
     .    ...   .  .  ... 

Bridge 2
D|-----------------------------------------------------------|
A|-----------------------------------------------------------|
F|-------------------------------------7h10-9h12-10h13-------|
C|----------------------------------6h9----------------------|x6
G|-------7h8--------------------7h8--------------------------|
C|---0000---0-5h8-0-4h7-00000000-----------------------------|
     ....   .     .     ........


Thheennn
D|-------------------------------------------------------------------|
A|-------------------------------------------------------------------|
F|-------------------------------------------------------------------|
C|-------------------------------------------------------------------|x2
G|-------7h8--------------------7h8----------------------------------|
C|---0000---0-5h8-0-4h7-00000000---0-5h8-0-4h74h74h7-----------------|
     ....   .     .     ........   .     .


The Ending Breakdown (same thing)
D|-------------------------------|
A|-------------------------------|
F|-------------------------------|
C|---0~---000~--0~-0~-000~-------|x4
G|---0~---000~--0~-0~-000~-------|
C|---0~---000~--0~-0~-000~-------|
     .    ...   .  .  ... 


And thats it and then just follow this once iget the video up..


Tap to rate this tab
# A B C D E F G H I J K L M N O P Q R S T U V W X Y Z