Song name
# A B C D E F G H I J K L M N O P Q R S T U V W X Y Z

Misc Unsigned Bands - No Boundariez - Revengence tab

No Boundariez Revengence

VERSE x2
E--------------------------------------------------------------------|
B--------------------------------------------------------------------|
G--------------------------------------------------------------------|
D-2-2-2-2-2-2-2-2------------------------------------2-2-2-2-2-2-2-2-|
A-2-2-2-2-2-2-2-2--3-3-3-3-3-3-3-3--3-3-3-3-3-3-3-3--2-2-2-2-2-2-2-2-|
E-0-0-0-0-0-0-0-0--1-1-1-1-1-1-1-1--3-3-3-3-3-3-3-3--0-0-0-0-0-0-0-0-|

CHORUS (distortion)  do this part x2                     then this
E------------------------------------------------|-------------------------|
B------------------------------------------------|------------12---15-15h13|
G------------------------------------------------|12-12h14-12---12---------|
D------------------------------------------------|-------------------------|
A------------------------------------------------|-------------------------|
E-7-7-7-7-7-7-7-7-7-7-7-7-7-7-7-7-7-7-7-7-7-7-7-7|-------------------------|

E--------------------------------------------------------------------|
B-15/17p14-13-15h16p15-------------------------13h15--18p15----------|
G----------------------12-12--10--10h12p10-12--------------1518p15---|
D-----------------------------------------------------------------15-|
A--------------------------------------------------------------------|
E--------------------------------------------------------------------|

E--------------------|
B-18p15--------------|
G------1518p15-------|
D--------------15--15|
A--------------------|
E--------------------|

BASS SOLO
E--------------------------------------------------|
B--------------------------------------------------|
G--------------------------------------------------|
D--------------------------------------------------|
A-3h4p3---(3)------5h6p5---(5)-----3-----------(3)-|
E--------------------------------------------------|

OUTRO (this is some fast picking)
E-------------------------------------------------------------------------|
B-------------------------------------------------------------------------|
G-------------------------------------------------------------------------|
D-------------------------------------------------------------------------|
A-777777777777777777777777------------------------------------------------|
E-555555555555555555555555--0-0--0-0--0-0--0-0-3-5-0-0--0-0--0-0--0-0-3-5-|

E--------------------------------------------------------------------|
B--------------------------------------------------------------------|
G---------------------------11111111111111111111111--1----(1)------1-|
D---------------------------22222222222222222222222--2----(2)------2-|
A-777777777777777777777777--22222222222222222222222--2----(2)------2-|
E-555555555555555555555555--00000000000000000000000--0----(0)------0-|

Order
VERSE
CHORUS
VERSE
CHORUS
BASS SOLO
VERSE
CHORUS
OUTRO


This is a more recent song our band wrote...enjoy!

www.myspace.com/noboundariez
www.freewebs.com/noboundariez
Tap to rate this tab
 
# A B C D E F G H I J K L M N O P Q R S T U V W X Y Z