Guitaretab - guitar tabs
Song name
# A B C D E F G H I J K L M N O P Q R S T U V W X Y Z

Misc Unsigned Bands - Penance - The End tab

intro
----------------------------------------------------------------|
----------------------------------------------------------------|
----------------------------------------------------------------|
----------------------------------------------------------------|
-----4/------6/-----5/------------------------------------------|
-2-2-----4-4----3-3---------------------------------------------|

 chorus [fast strokes]
-----------------------------------------------------------------|
-----------------------------------------------------------------|
--5-5-5-5-5-5-5-5---7-7-7-7-7-7-7-7---2-2-2-2-2-2-2-2---10-10-10-|
--5-5-5-5-5-5-5-5---7-7-7-7-7-7-7-7---2-2-2-2-2-2-2-2---10-10-10-|
--5-5-5-5-5-5-5-5---7-7-7-7-7-7-7-7---2-2-2-2-2-2-2-2---10-10-10-|
-----------------------------------------------------------------|


----------------------------------------------------------------|
----------------------------------------------------------------|
--10-10-10-10---------------------------------------------------|
--10-10-10-10-----play 4x---------------------------------------|
--10-10-10-10---------------------------------------------------|
----------------------------------------------------------------|

verse1
----------------------------------------------------------------|
----------------------------------------------------------------|
---4-4-4-4-4-4-4-4---2-2-2-2-2-2-2------------------------------|
---4-4-4-4-4-4-4-4---2-2-2-2-2-2-2------------------------------|
---4-4-4-4-4-4-4-4---2-2-2-2-2-2-2------------------------------|
----------------------------------------------------------------|

----------------------------------------------------------------|
----------------------------------------------------------------|
-10-10-10-10-10-10-10-10----------------------------------------|
-10-10-10-10-10-10-10-10-----play 4x----------------------------|
-10-10-10-10-10-10-10-10----------------------------------------|
----------------------------------------------------------------|

play chorus again and then do this  verse 2
[ Tab from: http://www.guitaretab.com/m/misc-unsigned-bands/92620.html ]
----------------------------------------------------------------|
----------------------------------------------------------------|
--10-10-10-10-10-10-10-10--12-12-12-12-12-12-12-12--------------|
--10-10-10-10-10-10-10-10--12-12-12-12-12-12-12-12--------------|
--10-10-10-10-10-10-10-10--12-12-12-12-12-12-12-12--------------|
----------------------------------------------------------------|


------------------------------------------------------------------|
------------------------------------------------------------------|
-2-2-2-2-2-2-2-2---11-11-11-11-11-11-11-11/-----------------------|
-2-2-2-2-2-2-2-2---11-11-11-11-11-11-11-11/-----------------------|
-2-2-2-2-2-2-2-2---11-11-11-11-11-11-11-11/-----------------------|
------------------------------------------------------------------|

solo
-2-0---------------------------------------------------------------|
-----2-3-2-3-------------------------------------------------------|
-------------2-2h3-------2-2h3/------------------------------------|
-------------------2-2h3-------------------------------------------|
-------------------------------------------------------------------|
-------------------------------------------------------------------|
verse3
--------------------------------------------------------------------|
--------------------------------------------------------------------|
-3-3-3--10-10--6-6-6--4-4-------------------------------------------|
-3-3-3--10-10--6-6-6--4-4--------play 4x----------------------------|
-3-3-3--10-10--6-6-6--4-4-------------------------------------------|
--------------------------------------------------------------------|


outro

-2p0-2s4s2p0--------------------------------------------------------|
-2p0----------------------------------------------------------------|
-2p0----------------------------------------------------------------|
--------------------------------------------------------------------|
--------------------------------------------------------------------|
--------------------------------------------------------------------|

well that took 4ever ENJOY!!
Related for Penance - The End tab
×
Penance - The End