Song name
# A B C D E F G H I J K L M N O P Q R S T U V W X Y Z

Misc Unsigned Bands - Crowd Control - Empty Space tab

Empty Space
Tabbed by: Crowd Control

\=slide down
/=slide up
~=ring out
INTRO
e --------------------------------------------------|
b 12-12-12-12-----7-7-7-7------9-9-9-9------5-5-5-5-|
g --------------------------------------------------|
d --------------------------------------------------|
a --------------------------------------------------|
E --------------------------------------------------|


e --------------------------------------------------------|
b 12-12-12-12-12\-----7-7-7-7-7-7------9-9-9-9-9----5---5-|
g --------------------------------------------------------|
d --------------------------------------------------------|
a --------------------------------------------------------|
E --------------------------------------------------------|

(play 2 times)
e --------------------------------------------------------------------------|
b --------------------------------------------------------------------------|
g --------------------------------------------------------------------------|
d --------------------------------------------------------------------------|
a 14-14-14-14-14-14-14-14-9-9-9-9-9-9-9-9-11-11-11-11-11-11-7-7-7-7-7-7-7-7-|
E 12-12-12-12-12-12-12-12-7-7-7-7-7-7-7-7-9-9-9-9-9-9-9-9---5-5-5-5-5-5-5-5-|

Verse(Play palm muted 2 times)
e --------------------------------------------------------------------------|
b --------------------------------------------------------------------------|
g --------------------------------------------------------------------------|
d --------------------------------------------------------------------------|
a 14-14-14-14-14-14-14-14-9-9-9-9-9-9-9-9-11-11-11-11-11-11-7-7-7-7-7-7-7-7-|
E 12-12-12-12-12-12-12-12-7-7-7-7-7-7-7-7-9-9-9-9-9-9-9-9---5-5-5-5-5-5-5-5-|

Chorus
e ----------------------------------------|
b ----------------------------------------|
d ----------------------------------------|
g ----------------------------------------|
a 14-14-14-14-9-9-9-9/11-12-117-7-7-9-9-9-|
E 12-12-12-12-7-7-7-7/-9-10-9-5-5-5-7-7-7-|
                    palm mute....   ...

e----------------------------------------|
b----------------------------------------|
d----------------------------------------|
g ---------------------------------------|
a 14-14-14-14-9-9-9-9/11-9-7-7-7-7-9-9-9-|
E 12-12-12-12-7-7-7-7/9-7-5--5-5-5-7-7-7-|

Bridge(palm muted)
e ----------------------------------------------------------|
b ----------------------------------------------------------|
d ----------------------------------------------------------|
g ----------------------------------------------------------|
a ----------------------------------------------------------|
E 0-0-0-0-0-0-5-5-0-0-0-0-0-0-5-5-0-0-5-5-0-0-5-5-0-0-0-0-0-|

Verse(Play palm muted 2 times)
e --------------------------------------------------------------------------|
b --------------------------------------------------------------------------|
g --------------------------------------------------------------------------|
d --------------------------------------------------------------------------|
a 14-14-14-14-14-14-14-14-9-9-9-9-9-9-9-9-11-11-11-11-11-11-7-7-7-7-7-7-7-7-|
E 12-12-12-12-12-12-12-12-7-7-7-7-7-7-7-7-9-9-9-9-9-9-9-9---5-5-5-5-5-5-5-5-|

Solo(palm mute)
e ------------------------------------|
b ------------------------------------|
d ------------------------------------|
g ------------------------------------|
a ------------------------------------|
E 0-0-0-0-5-5-5-5-5-7-7-7-7-5-5-5-5-5-|


e ----------------------------------------------------------------|
b ----------------------------------------------------------------|
d ----------------------------------------------------------------|
g ----------------------------------------------------------------|
a ----------------------------------------------------------------|
E 0-0-0-0-0-0-0-0-5-5-5-5-5-5-5-5-7-7-7-7-7-7-7-7-0-0-0-0-0-0-0-0-|

(no palm mute,still solo)
e -----------------------------------|
b -----------------------------------|
d -----------------------------------|
g -----------------------------------|
a -----------------------------------|
E 0-0-0-0-0-0-5-5-5-5-5-5-7-7-7-7-0~-|

Chorus
e ----------------------------------------|
b ----------------------------------------|
d ----------------------------------------|
g ----------------------------------------|
a 14-14-14-14-9-9-9-9/11-12-117-7-7-9-9-9-|
E 12-12-12-12-7-7-7-7/-9-10-9-5-5-5-7-7-7-|
                    palm mute....   ...

e----------------------------------------|
b----------------------------------------|
d----------------------------------------|
g ---------------------------------------|
a 14-14-14-14-9-9-9-9/11-9-7-7-7-7-9-9-9-|
E 12-12-12-12-7-7-7-7/9-7-5--5-5-5-7-7-7-|

Bridge(palm muted)
e -----------------------------------------------------------|
b -----------------------------------------------------------|
d -----------------------------------------------------------|
g -----------------------------------------------------------|
a -----------------------------------------------------------|
E 0-0-0-0-0-0-5-5-0-0-0-0-0-0-5-5-0-0-5-5-0-0-5-5-0-0-0-0-0~-|

ENJOY!!!!
Tap to rate this tab
 
# A B C D E F G H I J K L M N O P Q R S T U V W X Y Z