Song name
# A B C D E F G H I J K L M N O P Q R S T U V W X Y Z

Misc Unsigned Bands - Shadow Hinge - A Day Out Of My Life tab

Help us improve GuitareTab! Take a short survey!
           A Day out of my life
               Shadow hinge
Intro

e-----------------------------------|
B-----------------------------------|
G-----------------------------------|
D-3-----------2---------------------| x4
A-3-----------4---------------------|
E-1-1-1-1-1-1-2-2-2-2-2-2-----------|

Verse

e-----------------------------------|
B-----------------------------------|
G-----------------------------------|
D-6666-4444-8888--------------------| x5
A-6666-4444-8888--------------------|
E-4444-2222-6666-7h9b-r10-----------|

Chorus

e--------------------|------------------------------|
B--------------------|------------------------------|
G---------------4----|------------------------------|
D-3------7------4-x2-|-3--7--4--7--4--3--7--4--4--4-|
A-3------7------2----|-3--7--4--7--4--3--7--4--7--4-|
E-1------5-----------|-1--5--2--5--1--1--5--2--5--1-|

order intro
      Verse
      Chorus
      intro
      verse
      chorusx2
      introx2



Related for Shadow Hinge - A Day Out Of My Life tab