Song name
# A B C D E F G H I J K L M N O P Q R S T U V W X Y Z

Misc Unsigned Bands - Novelty Distraction - Excalibur tab

x= finger mute
h= hammer

verse 1
e----------------------------------------------------------------|
b----------------------------------------------------------------|
g----------------------------------------------------------------|   X2
d----------------------------------------------------------------|
a x-x-x-x-x-x-1h2-x-x-x-x-3-2-0-x-x-x-x-x-x-1h2-x-x-x-x-3-2-0----|
D x-x-x-x-x-x-1h2-x-x-x-x-3-2-0-x-x-x-x-x-x-1h2 x-x-x-x-3-2-0----|

e------------------------------------------------------------|
b------------------------------------------------------------|
g------------------------------------------------------------|
d------------------------------------------------------------|
a0-0-0-0-0-0-4-0-0-0-0-0-0-6-0-0-0-0-0-0-8---------------6---|
D0-0-0-0-0-0-4-0-0-0-0-0-0-6-0-0-0-0-0-0-8-7-8-0-6-7-0-5-6---|

verse 2
e--------------------------------------------------------------------|
b--------------------------------------------------------------------|
g--------------------------------------------------------------------|
d--------------------------------------------------------------------|
ax-x-x-x-x-x-1h2-x-x-x-x-3-2-0-1-0-x-x-x-x-x-x-1h2-x-x-x-x-3-2-0-1-0-|
Dx-x-x-x-x-x-1h2-x-x-x-x-3-2-0-1-0-x-x-x-x-x-x-1h2-x-x-x-x-3-2-0-1-0-|

e-------------------------------------------------------------------|
b-------------------------------------------------------------------|
g-------------------------------------------------------------------|
d-------------------------------------------------------------------|
ax-x-x-x-x-x-1h2-x-x-x-x-3-2-0-5-3-0-7-3-0-2-0----------------------|
Dx-x-x-x-x-x-1h2-x-x-x-x-3-2-0-5-3-0-7-3-0-2-0----------------------|


REPEAT VERSE 1
Tap to rate this tab
# A B C D E F G H I J K L M N O P Q R S T U V W X Y Z