Song name
# A B C D E F G H I J K L M N O P Q R S T U V W X Y Z

Misc Unsigned Bands - No Boundariez - May 13th tab

No Boundariez_May13th

This is on an acoustic

VERSE x4
E----------------------------------------|
B----------------------------------------|
G--------------------------------------1-|
D-2-2-2--2--2-2-2--2--2-2-2--2--2-2-2--2-|
A-0-0-0--2--0-0-0--2--0-0-0--2--0-0-0--2-|
E-0-0-0--0--0-0-0--0--0-0-0--0--0-0-0--0-|

BRIDGE (Strum up and down)

E----------------------------------------------------------2-2-2-2-2-2-2-2-2-|
B---------------------------------------1-1-1-1-1-1-1-1-1--3-3-3-3-3-3-3-3-3-|
G-1-1-1-1-1-1-1-1-1--2-2-2-2-2-2-2-2-2--0-0-0-0-0-0-0-0-0--2-2-2-2-2-2-2-2-2-|
D-2-2-2-2-2-2-2-2-2--1-1-1-1-1-1-1-1-1--2-2-2-2-2-2-2-2-2--0-0-0-0-0-0-0-0-0-|
A-2-2-2-2-2-2-2-2-2--2-2-2-2-2-2-2-2-2--3-3-3-3-3-3-3-3-3--------------------|
E-0-0-0-0-0-0-0-0-0----------------------------------------------------------|

E-3-3-3-3-3-3-3-3-3-|
B-0-0-0-0-0-0-0-0-0-|
G-0-0-0-0-0-0-0-0-0-|
D-0-0-0-0-0-0-0-0-0-|
A-2-2-2-2-2-2-2-2-2-|
E-3-3-3-3-3-3-3-3-3-|

OUTRO

E-3-3-3-----(3)-------------------|
B-0-0-0-----(0)-------------------|
G-0-0-0-----(0)--hold-------------|
D-0-0-0-----(0)-------------------|
A-2-2-2-----(2)-------------------|
E-3-3-3-----(3)-------------------|

Order
VERSE
BRIDGE
VERSE
BRIDGE
OUTRO

thats it enjoy

www.myspace.com/noboundariez
www.freewebs.com/noboundariez
Tap to rate this tab
# A B C D E F G H I J K L M N O P Q R S T U V W X Y Z