Song name
# A B C D E F G H I J K L M N O P Q R S T U V W X Y Z

Misc Unsigned Bands - E-s - Jumping Bridges tab

Song: Jumping Bridges
Artist: E-S
Album: Jumping Bridges
Tabbed By: E-S/A_tree7@hotmail.com

Verse:

e|---3-----3---------6-----6--------5-----5---------8-----8--------------|
B|-----------5---------------8--------------7---------------10-----------|
G|-4---4-4-----4---7---7-7-----7--6---6-6-----6---9---9-9------9---------|
D|-----------------------------------------------------------------------|
A|-----------------------------------------------------------------------|
E|-----------------------------------------------------------------------|

e|---3-----3---------6-----6--------5-----5---------8-----8--------------|
B|-----------5---------------8--------------7---------------10-----------|
G|-4---4-4-----4---7---7-7-----7--6---6-6-----6---9---9-9------9---------|
D|-----------------------------------------------------------------------|
A|-----------------------------------------------------------------------|
E|-----------------------------------------------------------------------|

e|---3-----3---------6-----6--------5-----5---------8-----8--------------|
B|-----------5---------------8--------------7---------------10-----------|
G|-4---4-4-----4---7---7-7-----7--6---6-6-----6---9---9-9------9---------|
D|-----------------------------------------------------------------------|
A|-----------------------------------------------------------------------|
E|-----------------------------------------------------------------------|

e|---3-----3---------6-----6--------5-----5---------8-----8--------------|
B|-----------5---------------8--------------7---------------10-----------|
G|-4---4-4-----4---7---7-7-----7--6---6-6-----6---9---9-9------9---------|
D|-----------------------------------------------------------------------|
A|-----------------------------------------------------------------------|
E|-----------------------------------------------------------------------|

e|---3-----3---------6-----6--------5-----5---------8-----8--------------|
B|-----------5---------------8--------------7---------------10-----------|
G|-4---4-4-----4---7---7-7-----7--6---6-6-----6---9---9-9------9---------|
D|-----------------------------------------------------------------------|
A|-----------------------------------------------------------------------|
E|-----------------------------------------------------------------------|

e|---3-----3---------6-----6--------5-----5---------8-----8--------------|
B|-----------5---------------8--------------7---------------10-----------|
G|-4---4-4-----4---7---7-7-----7--6---6-6-----6---9---9-9------9---------|
D|-----------------------------------------------------------------------|
A|-----------------------------------------------------------------------|
E|-----------------------------------------------------------------------|

 
Chorus:

e|-------------------------------------------------------------------------|
B|-------------------------------------------------------------------------|
G|-------------------------------------------------------------------------|
D|-7-7-7-x-10-x-10-x-10-10---5-5-5-x-3-x-3-x-3-3---------------------------|
A|-7-7-7-x-10-x-10-x-10-10---5-5-5-x-3-x-3-x-3-3---------------------------|
E|-5-5-5-x-8--x-8--x-8--8----3-3-3-x-1-x-1-x-1-1---------------------------|

e|-------------------------------------------------------------------------|
B|-------------------------------------------------------------------------|
G|-------------------------------------------------------------------------|
D|-7-7-7-x-10-x-10-x-10-10---5-5-5-x-3-x-3-x-3-3---------------------------|
A|-7-7-7-x-10-x-10-x-10-10---5-5-5-x-3-x-3-x-3-3---------------------------|
E|-5-5-5-x-8--x-8--x-8--8----3-3-3-x-1-x-1-x-1-1---------------------------|

e|-------------------------------------------------------------------------|
B|-------------------------------------------------------------------------|
G|-6-6-6---7----7----7--7----4-4-4---2---2---2-2---------------------------|
D|-7-7-7-x-10-x-10-x-10-10---5-5-5-x-3-x-3-x-3-3---------------------------|
A|-7-7-7-x-10-x-10-x-10-10---5-5-5-x-3-x-3-x-3-3---------------------------|
E|-5-5-5-x-8--x-8--x-8--8----3-3-3-x-1-x-1-x-1-1---------------------------|

e|-------------------------------------------------------------------------|
B|-------------------------------------------------------------------------|
G|-6-6-6---7----7----7--7----4-4-4---2---2---2-2---------------------------|
D|-7-7-7-x-10-x-10-x-10-10---5-5-5-x-3-x-3-x-3-3---------------------------|
A|-7-7-7-x-10-x-10-x-10-10---5-5-5-x-3-x-3-x-3-3---------------------------|
E|-5-5-5-x-8--x-8--x-8--8----3-3-3-x-1-x-1-x-1-1---------------------------|

e|-------------------------------------------------------------------------|
B|-------------------------------------------------------------------------|
G|-------------------------------------------------------------------------|
D|-7-7-7-x-10-x-10-x-10-10---5-5-5-x-3-x-3-x-3-3---------------------------|
A|-7-7-7-x-10-x-10-x-10-10---5-5-5-x-3-x-3-x-3-3---------------------------|
E|-5-5-5-x-8--x-8--x-8--8----3-3-3-x-1-x-1-x-1-1---------------------------|

Solo:

e||-----------------------||
B||-----------------------||
G||-----------------------||
D||--------14-------------||   X6
A||-----14----17P14-------||
E||-16B-------------------|| 


Slowly Bend And Release While Picking Fast
e|-------------------------|
B|-------------------------|
G|-16B------------------R--|
D|-------------------------|
A|-------------------------|
E|-------------------------|

e|--------------------------|
B|--------------------------|
G|-16P14--------------------|
D|-------16-----------------|  X12
A|--------------------------|
E|--------------------------|

e|-------------------------|
B|-------------------------|
G|-16B--16-----------------|
D|-------------------------|
A|-------------------------|
E|-------------------------|

e|---------------------------------------------------------------------|
B|---------------------------------------------------------------------|
G|---6----6---------9-----9-----------4------4----------2------2-------|
D|----------7---------------10-----------------5-----------------3-----|
A|------------7----------------10----------------5-----------------3---|
E|-5---5-5--------8---8-8-----------3---3-3-----------1---1-1----------|


Outro:

e|-0-0-0--0--0--0--0--0--0---0-0-0--0-0-0-0-0-0-----------------|
B|-0-0-0--0--0--0--0--0--0---0-0-0--0-0-0-0-0-0-----------------|
G|-6-6-6--9--9--9--9--9--9---4-4-4--2-2-2-2-2-2-----------------|
D|-7-7-7--10-10-10-10-10-10--5-5-5--3-3-3-3-3-3-----------------|  X4
A|-7-7-7--10-10-10-10-10-10--5-5-5--3-3-3-3-3-3-----------------|
E|-5-5-5--8--8--8--8--8--8---3-3-3--1-1-1-1-1-1-----------------|

Tap to rate this tab
# A B C D E F G H I J K L M N O P Q R S T U V W X Y Z