Song name
# A B C D E F G H I J K L M N O P Q R S T U V W X Y Z

Misc Unsigned Bands - Madelyn - Ronald Reaganthe Actor tab

Tuning: Standard (EADGBE)

Intro/Verse:                                                    (3x)
E|------------------------------------------------------------------|
B|------------------------------------------------------------------|
G|-7-7-7-7-7-7-7-7-7-7-7-7-7-7-7-7-7-7-7-7-7-7-7-7-7-7-7-7-7-7-7-7--|
D|-7-7-7-7-7-7-7-7-7-7-7-7-7-7-7-7-7-7-7-7-7-7-7-7-7-7-7-7-7-7-7-7--|
A|-5-5-5-5-5-5-5-5-5-5-5-5-5-5-5-5-5-5-5-5-5-5-5-5-5-5-5-5-5-5-5-5--|
E|------------------------------------------------------------------|
 PM. . . . . . . . . . . . . . . . . . . . . . . . . . . . . . . .

|------------------------------------------------------------------||
|------------------------------------------------------------------||
|------------------------------------------------------------------||
|-4-4-4-4-4-4-4-4-4-4-4-4-4-4-4-4-5-5-5-5-5-5-5-5-5-5-5-5-5-5-5-5--||
|-4-4-4-4-4-4-4-4-4-4-4-4-4-4-4-4-5-5-5-5-5-5-5-5-5-5-5-5-5-5-5-5--||
|-2-2-2-2-2-2-2-2-2-2-2-2-2-2-2-2-3-3-3-3-3-3-3-3-3-3-3-3-3-3-3-3--||
PM. . .   . .   .   . . .   . .   . . .   . .   .   . . .   . .

Post-Verse:
E|--------------------------------||
B|--------------------------------||
G|-7-7-7-7-7-7-7-7-7-7-7-7-7-7-7--||
D|-7-7-7-7-7-7-7-7-7-7-7-7-7-7-7--||
A|-5-5-5-5-5-5-5-5-5-5-5-5-5-5-5--||
E|--------------------------------||
 PM. . . . . . . . . . . . . . .

Pre-Chorus:                                                    (2x)
|------------------------------------------------------------------||
|------------------------------------------------------------------||
|---------4-------------------------------7---------------7--------||
|---4---4---4---4---------5---------7---7---7---7---7---7---7---7--||
|-2---2-------2-----5---5---5---5-5---5-------5---5---5-------5----||
|-----------------3---3-------3------------------------------------||

Chorus:
Same as Pre-Chorus with Chords starting off the rhythm

Verse
Post-Verse
Pre-Chorus
Chorus 2x

Bridge:                             (4.5x)
|----------------------------------------||
|----------------------------------------||
|-----4-4-----7-7-9/7\9-----4-4-----7-7--||
|-7-7-4-4-5-5-7-7-7-7-7-7-7-4-4-5-5-7-7--||
|-7-7-2-2-5-5-5-5-5-5-5-7-7-2-2-5-5-5-5--||
|-5-5-----3-3-----------5-5-----3-3------||

Guitar 2 plays something I don't know after bridge

Chorus 2x
Then End with the bridge rhythm played only once

Note: Tried my best to tab this one out by ear, not perfect, but I'd say about 75% 
or so. I'll try to see them live sometime and look for the mistakes. Enjoy! Great song by an 
band.
Tap to rate this tab
 
# A B C D E F G H I J K L M N O P Q R S T U V W X Y Z