Song name
# A B C D E F G H I J K L M N O P Q R S T U V W X Y Z

Misc Unsigned Bands - Viricidal - Untitled tab

Ok this song is gunna the "2-step" song haha so here it is


Intro
D|---------------------------------------------------------------------------------|
A|---------------------------------------------------------------------------------|
F|---------------------------------------------------------------------------------|
C|-0-----------------8------------------5-------------------7----------------------|x3
G|-0--8-8-8-8-8-8p7--8--8-8-8-8-8-8h10--5--8-7-7-7-7-7-7h8--7--8-7-7-8-8-8h10------|
C|-0-0-0-0-0-0-0---0-8-8-8-8-8-8-8----8-5-5-5-5-5-5-5-5---5-7-7-7-7-7-7-7----------|
     . . . . . .   .   . . . . . .    .   . . . . . . .   .   . . . . . .

Theenn
thats when you do you sweeping part But i play this.
D|--------------------|
A|--------------------|
F|--------------------|
C|--0--8--5--7--------|x2
G|--0--8--5--7--------|
C|--0--8--5--7--------|


First Part of riff
D|---------------------------|
A|---------------------------|
F|---------------------------|
C|--------------7--8---7-----|x2
G|--------8--7---8--10--8----|
C|-000-000-00-00-------------|
   ... ... .. ..

Second part of riff
D|-----------------------------------------------------|
A|-----------------------------------------------------|
F|-----------------------------------------------------|
C|--------------7--8---7---------------7--8---10-------|
G|--------8--7---8--10--8--------8--7---8--10---12-----|
C|-555-555-55-55----------888-888-88-88----------------|
   ... ... .. ..          ... ... .. ..

Play both parts of riffs 2 through

Breakdown (On the second time through let the 0's ring)
D|----------------------------------------------------------------|
A|----------------------------------------------------------------|
F|----------------------------------------------------------------|
C|---000-000---000--000-000---000---888-888---888--777-777--5~----|x2
G|---000-000---000--000-000---000---888-888---888--777-777--5~----|
C|---000-000---000--000-000---000---888-888---888--777-777--5~----|
     ... ...   ...  ... ...   ...   ... ...   ...  ... ...

After breakdown
F|------------------------------------|
A|------------------------------------|
D|------------------------------------|
C|------------------------------------|x2
G|-----8-7----------------------------|
C|--000-0-10-0-8-0-7-0-7-7h8p75p0-----|
    ... .    .   .   .

Continued...
F|-----------------------------------------------------------|
A|-----------------------------------------------------------|
D|-----------------------------------------------------------|
C|-----------------------------------------------------------|both x2
G|-----8-7---------------------------8-7----------10h12------|
C|--555-5-10-0-8-0-7-0-7-7h8p75-5h8-8-8-1010-88-77-----------|
    ... .    .   .   .              . .  .   .  .

Then Pick really fast
F|--------------------------------------------------|
A|--------------------------------------------------|
D|--------------------------------------------------|
C|--------------------------------------------------|x1
G|-----8-7--------------------8-7-------------------|
C|--000---10-8-7-7h8p75p0--000---10-8-7-7h8p75p0----|

Continued Still picking really fast
F|--------------------------------------------------|
A|--------------------------------------------------|
D|--------------------------------------------------|
C|--------------------------------------------------|x1
G|-----8-7--------------------8-7-------------------|
C|--555---10-8-7-7h8p75h8--888---10-8-7-10-12-------|

The breakdown
D|---------------------------------------------|
A|---------------------------------------------|
F|---------------------------------------------|
C|--0~----------------------------0-8-5-7-0----|
G|--0~--(hold-for-dummy-long)-----0-8-5-7-0----|
C|--0~----------------------------0-8-5-7-0----|
                                  . . . . .

DING DING
D|----------------|
A|----------------|
F|----------------|
C|---0-8-5-7-0----|xalot until we give head nod
G|---0-8-5-7-0----|
C|---0-8-5-7-0----|

AND THATS IT!
Tap to rate this tab
# A B C D E F G H I J K L M N O P Q R S T U V W X Y Z