Song name
# A B C D E F G H I J K L M N O P Q R S T U V W X Y Z

Misc Unsigned Bands - The Last Great Bridge Jumper - Sos Scars Off Starboard tab

S.O.S. [SCARS OFF STARBOARD]
BY THE LAST GREAT BRIDGE JUMPER

(www.myspace.com/thelastgreatbridgejumper)

TABBED BY ZACH MARTIN

LEGEND:
~ - Let ring
\ - slide down
/ - slide up
x - scratch / muted string
. - palm muted
b - bend note
t - 10th fret
e - 11th fret
w - 12th fret
h - 13th fret
f - 14th fret
i - 15th fret
s - 16th fret
v - 17th fret
e - 18th fret
n - 19th fret
ETC.

NOTE: SWING TEMPO!!!

Intro:
Lead:
e|--------------------------------------------------
B|--------------------------------------------------
G|----999999999999999999999666666666666444444444444-
D|-4~4777777777999999999999777777777777xxxxxxxxxxxx-
A|-4~4999999999000000000000555555555555222222222222-
D|-4~4----------------------------------------------

Rhythm:
e|--------------------------------------------------
B|--------------------------------------------------
G|--------------------------------------------------
D|-4~4---------------------000000000000222222222222-
A|-4~4---------------------000000000000222222222222-
D|-4~4---------------------000000000000222222222222-


Lead:
e|-------------------------555555555555777777777777-
B|-------------------------555555555555999999999999-
G|----999999999999999999999777777777777999999999999-
D|-4~4777777777999999999999777777777777999999999999-
A|-4~4999999999000000000000000000000000777777777777-
D|-4~4----------------------------------------------

Rhythm:
e|--------------------------------------------------
B|--------------------------------------------------
G|----999999999999999999999-------------------------
D|-4~4777777777999999999999000000000000222222222222-
A|-4~4999999999000000000000000000000000222222222222-
D|-4~4---------------------000000000000222222222222-


Pre-Verse:
Lead:
e|-5~--------------------5-5~-------------------tb~-
B|-5~--------------------5-5~-------------------tb~-
G|-7~--------------------7-7~-------------------9b~-
D|-7~--------------------7-7~-----------------------
A|-0~--------------------0-0~-----------------------
D|--------------------------------------------------

Rhythm:
e|----------------------------------------------5b~-
B|----------------------------------------------5b~-
G|--------------------------------------------------
D|-0~--------------------0-0~-----------------------
A|-0~--------------------0-0~-----------------------
D|-0~--------------------0-0~-----------------------


Verse 1:
Lead:
e|--------------------------------------------------
B|--------------------------------------------------
G|-------------------------------------6~6---------- x4
D|-4~4------2~24~4------2~20~0------0~06~6---7~70~--
A|-4~4------2~24~4------2~20~0------0~04~4---7~70~--
D|-4~4------2~24~4------2~20~0------0~0------7~70~--

Rhythm: Rest first two times through, then come in with:
e|--------------------------------------------------
B|--------------------------------------------------
G|-------------------------------------666666------- x2
D|-444444444222444444444222000000000000666666777000-
A|-444444444222444444444222000000000000444444777000-
D|-444444444222444444444222000000000000------777000-
   ................................................

Pre-Chorus: (same as Intro)
Lead:
e|--------------------------------------------------
B|--------------------------------------------------
G|----999999999999999999999666666666666444444444444-
D|-4~4777777777999999999999777777777777xxxxxxxxxxxx-
A|-4~4999999999000000000000555555555555222222222222-
D|-4~4----------------------------------------------

Rhythm:
e|--------------------------------------------------
B|--------------------------------------------------
G|--------------------------------------------------
D|-4~4---------------------000000000000222222222222-
A|-4~4---------------------000000000000222222222222-
D|-4~4---------------------000000000000222222222222-


Lead:
e|-------------------------555555555555777777777777-
B|-------------------------555555555555999999999999-
G|----999999999999999999999777777777777999999999999-
D|-4~4777777777999999999999777777777777999999999999-
A|-4~4999999999000000000000000000000000777777777777-
D|-4~4----------------------------------------------

Rhythm:
e|--------------------------------------------------
B|--------------------------------------------------
G|----999999999999999999999-------------------------
D|-4~4777777777999999999999000000000000222222222222-
A|-4~4999999999000000000000000000000000222222222222-
D|-4~4---------------------000000000000222222222222-


Chorus:
Lead:
e|--------------------------------------------------
B|--------------------------------------------------
G|-999999999999hhhhhhffffff777777777777999999999999- x2
D|-xxxxxxxxxxxx-x-x-x-x-x-xxxxxxxxxxxxxxxxxxxxxxxxx-
A|-999999999999eeeeeewwwwww999999999999777777777777-
D|--------------------------------------------------

Rhythm:
e|--------------------------------------------------
B|--------------------------------------------------
G|-------------------666666------------------------- x2
D|-444444444444777777666666000000000000222222222222-
A|-444444444444777777444444000000000000222222222222-
D|-444444444444777777------000000000000222222222222-


Pre-Verse 2: half as long
Lead:
e|-5~-------------------tb~-
B|-5~-------------------tb~-
G|-7~-------------------9b~-
D|-7~-----------------------
A|-0~-----------------------
D|--------------------------

Rhythm:
e|----------------------5b~-
B|----------------------5b~-
G|--------------------------
D|-0~-----------------------
A|-0~-----------------------
D|-0~-----------------------


Verse 2:
Lead:
e|-------5--454------5--454------5--454------5--12b-
B|----5-----------5-----------5-----------5-----12b-
G|----------------------------------------------12b- x2
D|-444-44-44---444-44-44---000-00-00---222-22-22----
A|--------------------------------------------------
D|--------------------------------------------------
   ... .. ..   ... .. ..   ... .. ..   ... .. ..

e|--------------------------------------------------
B|--------------------------------------------------
G|-------------------------------------666666------- x2
D|-444444444222444444444222000000000000666666777000-
A|-444444444222444444444222000000000000444444777000-
D|-444444444222444444444222000000000000------777000-
   ................................................


Pre-Chorus: (DIFFERENT THIS TIME!)
Lead:
e|--------------------------------------------------
B|--------------------------------------------------
G|----999999999999999999999666666666666444444444444-
D|-4~4777777777999999999999777777777777xxxxxxxxxxxx-
A|-4~4999999999000000000000555555555555222222222222-
D|-4~4----------------------------------------------

Rhythm:
e|--------------------------------------------------
B|--------------------------------------------------
G|--------------------------------------------------
D|-4~4---------------------000000000000222222222222-
A|-4~4---------------------000000000000222222222222-
D|-4~4---------------------000000000000222222222222-


Lead:
e|-------------------------5555555555557--7--7--7---
B|-------------------------5555555555559--9--9--9---
G|----9999999999999999999997777777777779--9--9--9---
D|-4~47777777779999999999997777777777779--9--9--9---
A|-4~49999999990000000000000000000000007--7--7--7---
D|-4~4----------------------------------------------

Rhythm:
e|--------------------------------------------------
B|--------------------------------------------------
G|----999999999999999999999-------------------------
D|-4~47777777779999999999990000000000002--2--2--2---
A|-4~49999999990000000000000000000000002--2--2--2---
D|-4~4---------------------0000000000002--2--2--2---


Chorus 2:
Lead:
e|--------------------------------------------------
B|--------------------------------------------------
G|-999999999999hhhhhhffffff777777777777999999999999- x2
D|-xxxxxxxxxxxx-x-x-x-x-x-xxxxxxxxxxxxxxxxxxxxxxxxx-
A|-999999999999eeeeeewwwwww999999999999777777777777-
D|--------------------------------------------------
                                             ^
                      Break here second time | then repeat chorus
Rhythm:                                      V
e|--------------------------------------------------
B|--------------------------------------------------
G|-------------------666666------------------------- x2
D|-444444444444777777666666000000000000222222222222-
A|-444444444444777777444444000000000000222222222222-
D|-444444444444777777------000000000000222222222222-
    

Pre-Bridge:
Lead: Let it ring
e|-5~-----------------------------------------------
B|-5~-----------------------------------------------
G|-7~-----------------------------------------------
D|-7~-----------------------------------------------
A|-0~-----------------------------------------------
D|--------------------------------------------------

e|--------------------------------------------------
B|--------------------------------------------------
G|--------------------------------------------------
D|-0~-----------------------------------------------
A|-0~-----------------------------------------------
D|-0~-----------------------------------------------


Bridge: () = rhythm part
Lead:
e|---------------------------------------
B|---------------------------------------
G|---------------------------------------
D|----------4-4-44------------0-0-02-2-2-
A|----------4-4-44------------0-0-02-2-2-
D|----------4-4-44------------0-0-02-2-2-
            . . ..            . . .. . .
Rhythm:
e|---------------------------------------
B|---------------------------------------
G|---------------------------------------
D|-4-4-44------------0-0-00---0-0-02-2-2-
A|-4-4-44------------0-0-00---0-0-02-2-2-
D|-4-4-44------------0-0-00---0-0-02-2-2-
   . . ..            . . ..   . . .. . .

Lead:
e|--------------------------------------
B|--------------------------------------
G|------9~-------hhff-----6~-------4444-
D|-4-4-4x---4-4-4xxxx0-0-07~--0-0-0xxxx-
A|-4-4-49~--4-4-4eeww0-0-05~--0-0-02222-
D|-4-4-4----4-4-4----0-0-0----0-0-0-----
   . . .    . . .    . . .    . . .

Rhythm:
e|---------------------------------------
B|---------------------------------------
G|---------------------------------------
D|-4-4-44~-44-4-44~--0-0-00~--0-0-02-2-2-
A|-4-4-44~-44-4-44~--0-0-00~--0-0-02-2-2-
D|-4-4-44~-44-4-44~--0-0-00~--0-0-02-2-2-
   . . .   .. . .    . . .    . . .. . .


Outro:
e|------------------------------------------------------------------------------12~-
B|-10p9p7p9p10p9p7p9p10p9p7p9p10p9p7p9p12p10p9p10p12p10p9p10p14p12p10p12p9p10p9p----
G|---------------------------------------------------------------------------------- x4
D|----------------------------------------------------------------------------------
A|----------------------------------------------------------------------------------
D|----------------------------------------------------------------------------------

Rhythm:
e|--------------------------------------
B|--------------------------------------
G|------9~-------hhff------7~------9999-
D|-4-4-4x---4-4-4xxxx0-0-00x~-0-0-0xxxx-
A|-4-4-49~--4-4-4eeww0-0-009~-0-0-07777-
D|-4-4-4----4-4-4----0-0-00---0-0-0-----\
                                         x2
e|--------------------------------------/
B|--------------------------------------
G|------9~-------hhff------6~------4444-
D|-4-4-4x---4-4-4xxxx0-0-007~-0-0-0xxxx-
A|-4-4-49~--4-4-4eeww0-0-005~-0-0-02222-
D|-4-4-4----4-4-4----0-0-00---0-0-0-----


Ending:
Lead:
e|-----------------------------------------------------------
B|-10~-9~-7~-9~-12~-10~-9~-10~-14~-12~-10~-12~-9~~~~---------
G|-----------------------------------------------------------
D|-------------------------------------------------------4~--
A|-------------------------------------------------------4~--
D|-------------------------------------------------------4~--

Rhythm:
e|-----------------------------------------------------------
B|-----------------------------------------------------------
G|-----------------------------------------------------------
D|-4~----------------------------------------------------4~--
A|-4~---[keep ringing out]-------------------------------4~--
D|-4~----------------------------------------------------4~--
Tap to rate this tab
 
# A B C D E F G H I J K L M N O P Q R S T U V W X Y Z