Song name
# A B C D E F G H I J K L M N O P Q R S T U V W X Y Z

Misc Unsigned Bands - Black Equinox Project - Blue Vendetta tab

Help us improve GuitareTab! Take a short survey!
Black Equinox Project - Blue Vendetta

Words by Shane Bazinet, music by Travis Lausch

Tuning: 7 string in Dropped-A tuning (A E A D G B E)

Main riff (intro/prechorus/outro)
(w/distortion)
|---------------------------------------------------------------|
|---------------------------------------------------------------|
|-----------------------------------------------.---.---.---.---|
|-------------.--------------.--------------.---11--11--10--9---|
|----------10h12----------10h12----------10h12--10--10--9---8---|
|------11-------------11-------------11---------11--11--10--9---|
|--0--------------0--------------0------------------------------|

Verse riff
(clean w/phaser and chorus)
|-----------------------------------------------------------|
|---------0-------------0-------------0-------------0-------|
|-------6----6--------6----6--------5----5--------5----5----|
|-----5--------5----5--------5----4--------4----4--------4--|
|--7-------------7-------------6-------------6--------------|
|-----------------------------------------------------------|
|-----------------------------------------------------------|
|
|(bass)
|-----------------------------------------------------------|
|-----------------------------------------------------------|
|--0--12-0-10h12-0--12-0-10h12-0--12-0-10h12-0--12-0-10h12--|
|-----------------------------------------------------------|

Chorus riff
(w/distortion)
|--0-0-0-0-0-0-0-0--|--0-0-0-0-0-0-0-0--|----0-0-0-0-0-0-0--|--0-0-0-0-0-0-0--|
|--0-0-0-0-0-0-0-0--|--0-0-0-0-0-0-0-0--|----0-0-0-0-0-0-0--|--0-0-0-0-0-0-0--|
|--6-6-6-6-6-6-6-6--|--5-5-5-5-5-5-5-1--|----1-1-1-1-1-1-1--|--1-1-1-1-1-1-1--|
|--5-5-5-5-5-5-5-5--|--4-4-4-4-4-4-4-0--|----0-0-0-0-0-0-0--|--0-0-0-0-0-0-0--|
|--7-7-7-7-7-7-7-7--|--6-6-6-6-6-6-6-2--|----2-2-2-2-2-2-2--|--2-2-2-2-2-2-2--|
|--5-5-5-5-5-5-5-5--|--4-4-4-4-4-4-4-0--|----0-0-0-0-0-0-0--|--0-0-0-0-0-0-0--|
|-------------------|-------------------|-------------------|-----------------|

Interlude riff 1
|----------------------------------------------------------|
|----------------------------------------------------------|
|-------------------------------------------.---.---.---.--|
|-------------------------------------------11--11--10--9--|
|--0--0-0-0-0----0--0-0-0-0----0--0-0-0-0---10--10--9---8--|
|--0--0-0-0-0----0--0-0-0-0----0--0-0-0-0---11--11--10--9--|
|--0--0-0-0-0----0--0-0-0-0----0--0-0-0-0------------------|

Interlude riff 2
|---------------------------------------------------------------------------------|
|---------------------------------------------------------------------------------|
|---------------------------------------------------------------------------------|
|-------0-------------0-----------------------------------------------------------|
|-----2--------0----2--------0-0--0-0-0-0---0--0-0-0-0---0--0-0-0-0---0--0-0-0-0--|
|--3---------2---3---------2---0--0-0-0-0---0--0-0-0-0---0--0-0-0-0---0--0-0-0-0--|
|---------5-------------5------0--0-0-0-0---0--0-0-0-0---0--0-0-0-0---0--0-0-0-0--|

Interlude riff 3
                                 x2
||-------------------------------||---------------------|
||-------------------------------||---------------------|
||o-----------------------------o||---------------------|
||-------0-------------0---------||---------------------|
||o----2--------0----2--------0-o||--0------------------|
||--3---------2---3---------2----||--0------------------|
||---------5-------------5-------||--0------------------|

Song is available for listening/download at: www.stage,fm/thecrayolamishap
Related for Black Equinox Project - Blue Vendetta tab