Song name
# A B C D E F G H I J K L M N O P Q R S T U V W X Y Z

Misc Unsigned Bands - Black Equinox Project - Love In A Half-lit Basement tab

Black Equinox Project - Love In A Half-Lit Basement

Words and music by Shane Bazinet and Travis Lausch

Tuning: Shane and Paul: 6-string guitars in standard tuning (E A D G B E). Travis: 
guitar in dropped-A tuning (A E A D G B E)

Chords:

   Cmaj7    Asus2    F        Bmaj9/A   A        G        Bm
|--0--------0--------1--------0---------0--------3--------2--------|
|--0--------0--------1--------4---------2--------3--------3--------|
|--4--------2--------2--------4---------2--------4--------4--------|
|--5--------2--------3--------4---------2--------5--------4--------|
|--3--------0-----------------0---------0--------------------------|
|------------------------------------------------------------------|


Intro:

Cmaj7   Asus2   Cmaj7   Asus2

Cmaj7   Asus2   Cmaj7   Asus2
Ooooooooh...    Ooooooooh...

A (5 str/open) G (6 str/3rd fret)

F        F (6 str/1 fr) G (6 str/3 fr) Asus2          A (5 str/open) G (6 str/3 fr)

F        F (6 str/1 fr) G (6 str/3 fr) Asus2

Verse:

Asus2                           Cmaj7
You've really grown on me, it shows

Asus2                       Cmaj7
I need you more than ever before

Asus2                                 Cmaj7
Since I helped you, you showed me you care

Asus2                      Cmaj7
Now I'm waiting to be with you

Chorus:

F        F (6 str/1 fr) G (6 str/3 fr) Asus2          A (5 str/open) G (6 str/3 fr)

F        F (6 str/1 fr) G (6 str/3 fr) Asus2

Interlude:

Bmaj9/A  A   Bmaj9/A  A   Bmaj9/A

Gtr. 1 (acoustic)
G              Bmaj9/A  A   Bmaj9/A  A   Bmaj9/A  A  G
Gtr. 3 (7-string)
|------------------------------------------------------------------|
|------------------------------------------------------------------|
|--4---5---7---7/9-----------------------------------4---5--/7-----|
|------------------------------------------------------------------|
|------------------------------------------------------------------|
|------------------------------------------------------------------|
|------------------------------------------------------------------|

   Bmaj9/A  A               Bmaj9/A  A                 Bmaj9/A   A                    G

|--7--7-7-7-5--5-5--5--5-5--7--7-7-7-5--5-5--5--8//10--12--12-12-12--12-12-12--12-12--12--12-12-12--12-12-12--12-12--|
|--x--x-x-x-x--x-x--x--x-x--x--x-x-x-x--x-x--x--x------x---x--x--x---x--x--x---x--x---x---x--x--x---x--x--x---x--x---|
|--4--4-4-4-2--2-2--2--2-2--4--4-4-4-2--2-2--2--5//7---9---9--9--9---9--9--9---9--9---9---9--9--9---9--9--9---9--9---|
|--------------------------------------------------------------------------------------------------------------------|
|--------------------------------------------------------------------------------------------------------------------|
|--------------------------------------------------------------------------------------------------------------------|
|--------------------------------------------------------------------------------------------------------------------|

   Bmaj9/A  A               Bmaj9/A  A                 Bmaj9/A   A                    G

|--7--7-7-7-5--5-5--5--5-5--7--7-7-7-5--5-5--5--8//10--12--12-12-12--12-12-12--12-12--15--15-15-15--15-15-15--15-15--|
|--x--x-x-x-x--x-x--x--x-x--x--x-x-x-x--x-x--x--x------x---x--x--x---x--x--x---x--x---x---x--x--x---x--x--x---x--x---|
|--4--4-4-4-2--2-2--2--2-2--4--4-4-4-2--2-2--2--5//7---9---9--9--9---9--9--9---9--9---12--12-12-12--12-12-12--12-12--|
|--------------------------------------------------------------------------------------------------------------------|
|--------------------------------------------------------------------------------------------------------------------|
|--------------------------------------------------------------------------------------------------------------------|
|--------------------------------------------------------------------------------------------------------------------|
|
|Gtr. 2 (6-string)
|--------------------------------------------------------------------------------------------------------------------|
|--------------------------------------------------------------------------------------------------------------------|
|--------------------------------------------------------------------------------------------------------------------|
|-------------------------------------------------------------------------------------5---5---5---5---5---5---5---5--|
|-------------------------------------------------------------------------------------5---5---5---5---5---5---5---5--|
|-------------------------------------------------------------------------------------3---3---3---3---3---3---3---3--|

Verse 2
Gtr. 1 (acoustic)
   G                          Bm
Gtr. 2 (6-string)
|--------------------------|--------------------------|
|--------------------------|--------------------------|
|--------------------------|--4--4--4--4--4--4--4--4--|
|--5--5--5--5--5--5--5--5--|--4--4--4--4--4--4--4--4--|
|--5--5--5--5--5--5--5--5--|--2--2--2--2--2--2--2--2--|
|--3--3--3--3--3--3--3--3--|--------------------------|

Guitar solo (w/previous verse fig.)
   G                       Bm                     G                    Bm
Gtr. 3
|-----------------------------------------------------------------------------15----14----12----14-----|
|--------------------------------------------------------------------------12----12----12----12----12--|
|-------------------------------------------2h4p2/12---12--14---b16r14\11------------------------------|
|--5~~~~----5--7----b9r7--\4----------2h4h5------------------------------------------------------------|
|-------------------------------2h4h5------------------------------------------------------------------|
|------------------------------------------------------------------------------------------------------|
|------------------------------------------------------------------------------------------------------|

   G                       Bm                        G                      Bm

|--15~~~~---15-17---b19r17\14---14h15-14----15-14----15~~~~--15-17---b19r17\14-------/22--22~~~~~~~~---|
|----------------------------------------15-------15---------------------------------------------------|
|------------------------------------------------------------------------------------------------------|
|------------------------------------------------------------------------------------------------------|
|------------------------------------------------------------------------------------------------------|
|------------------------------------------------------------------------------------------------------|
|------------------------------------------------------------------------------------------------------|

Repeat verse w/variations in rhythm until end:
|---------------------------------------------|
|---------------------------------------------|
|---------------------------------------------|
|--5---5-5-5-5---5-5-5-5---5-5-5-5--5--5--5---|
|--5---5-5-5-5---5-5-5-5---5-5-5-5--5--5--5---|
|--3---3-3-3-3---3-3-3-3---3-3-3-3--3--3--3---|

Song available for listening/download at www.stage.fm/thecrayolamishap
Tap to rate this tab
 
# A B C D E F G H I J K L M N O P Q R S T U V W X Y Z