Song name
# A B C D E F G H I J K L M N O P Q R S T U V W X Y Z

Misc Unsigned Bands - Black Equinox Project - Witch Hunt tab

Black Equinox Project - Witch Hunt

Words by Travis Lausch, music by Tim Larocque, Travis Lausch, Paul Dubuc, and Shane Bazinet

Tuning: All guitars 6-string standard tuning (E A D G B E)

Intro/Verse
Paul:
|------------------------------|--------------------------|
|------------------------------|--------------------------|
|------------------------------|--------------------------|
|------------------------------|--------------------------|
|---------11---12---11--9------|---------9---11---9--7----|
|--9--9-9----9----9------------|--7--7-7---7----7---------|
|
|Travis: (sometimes played on keyboard)
|------------------------------|--------------------------|
|------------------------------|--------------------------|
|--13-------------------14-13--|--11----------------------|
|--x--------------------x--x---|--x-----------------------|
|--11-------------------12-11--|--9-----------------------|
|------------------------------|--------------------------|


Chorus
Paul:
|-----------------------------------------|-----------------------------------|
|-----------------------------------------|-----------------------------------|
|-----------------------------------------|-----------------------------------|
|-----------------------------------------|-----------------------------------|
|--11--11-11-11--11--9---9--9--9---9--9---|--7--7-7-7--7--9---9--9---9---9----|
|--9---9--9--9---9---9---9--9--9---9--9---|--7--7-7-7--7--7---7--7---7---7----|
|
|Travis:
|-----------------------------------------|-----------------------------------|
|-----------------------------------------|-----------------------------------|
|--13--13-13-13--13--11--11-11-11--11-11--|--9--9-9-9--9--11--11-11--11--11---|
|--x---x--x--x---x---x---x--x--x---x--x---|--x--x-x-x--x--x---x--x---x---x----|
|--11--11-11-11--11--9---9--9--9---9--9---|--7--7-7-7--7--9---9--9---9---9----|
|-----------------------------------------|-----------------------------------|


|------------------------------|------------------------------|
|------------------------------|------------------------------|
|------------------------------|------------------------------|
|------------------------------|------------------------------|
|--7--7-7-7--7-6--6-6--6--6-6--|--7--7-7-7--7-6--6-6--6--6-6--|
|--5--5-5-5--5-5--5-5--5--5-5--|--5--5-5-5--5-5--5-5--5--5-5--|
|
|------------------------------|------------------------------|
|------------------------------|------------------------------|
|--9--9-9-9--9-8--8-8--8--8-8--|--9--9-9-9--9-8--8-8--8--8-8--|
|--x--x-x-x--x-x--x-x--x--x-x--|--x--x-x-x--x-x--x-x--x--x-x--|
|--7--7-7-7--7-6--6-6--6--6-6--|--7--7-7-7--7-6--6-6--6--6-6--|
|------------------------------|------------------------------|


Bridge
Paul:
|-----------------|-----------------|------------------------------|------------------------------|
|-----------------|-----------------|------------------------------|------------------------------|
|-----------------|-----------------|------------------------------|------------------------------|
|--2--------------|--4--------------|------------------------------|------------------------------|
|--2--------------|--4--------------|--7--7-7-7--7-6--6-6--6--6-6--|--7--7-7-7--7-6--6-6--6--6-6--|
|--0--------------|--2--------------|--5--5-5-5--5-5--5-5--5--5-5--|--5--5-5-5--5-5--5-5--5--5-5--|
|
|Travis
|--------0--------|--------0--------|------------------------------|------------------------------|
|-----------0-----|-----------0-----|------------------------------|------------------------------|
|-------------1---|-------------3---|-/9--9-9-9--9-8--8-8--8--8-8--|--9--9-9-9--9-8--8-8--8--8-8--|
|--2---2----------|--4---4----------|--x--x-x-x--x-x--x-x--x--x-x--|--x--x-x-x--x-x--x-x--x--x-x--|
|--2---2----------|--4---4----------|-/7--7-7-7--7-6--6-6--6--6-6--|--7--7-7-7--7-6--6-6--6--6-6--|
|--0---0----------|--2---2----------|------------------------------|------------------------------|

Keyboard Solo (rhythm)

Paul:
|-----------------------------------|------------------------------|
|-----------------------------------|------------------------------|
|-----------------------------------|------------------------------|
|--11--11-11-11--11-7--7--7-7--7-7--|--9--9-9-9--9-6--6--6-6--6-6--|
|--9---9--9--9---9--5--5--5-5--5-5--|--7--7-7-7--7-4--4--4-4--4-4--|
|-----------------------------------|------------------------------|

Travis: synth


Outro
Paul:
|------------------------------|--------------------------|
|------------------------------|--------------------------|
|------------------------------|--------------------------|
|------------------------------|--------------------------|
|---------11---12---11--9------|---------9---11---9--7----|
|--9--9-9----9----9------------|--7--7-7---7----7---------|
|
|Travis
|------------------------------|--------------------------|
|------------------------------|--------------------------|
|------------------------------|--------------------------|
|---------9----11---9---7------|---------7---9----7--6----|
|------------------------------|--------------------------|
|--9--9-9----9----9------------|--7--7-7---7----7---------|

Song available for listening/download at www.stage.fm/thecrayolamishap
Tap to rate this tab
# A B C D E F G H I J K L M N O P Q R S T U V W X Y Z