Song name
# A B C D E F G H I J K L M N O P Q R S T U V W X Y Z

Misc Unsigned Bands - Black Equinox Project - Eye Of The Universe tab

Black Equinox Project - Eye Of The Universe

Words by Shane Bazinet, music by Travis Lausch

Tuning: Paul: 6-string guitar in standard tuning (E A D G B E). Travis: 7-string guitar 
dropped-A tuning (A E A D G B E)

Note: This song is rather unorganized, so riffs will not be labeled according to structure

Riff 1
Travis:
(clean elec. gtr w/digital delay set to 400ms, one repeat)
|--------------------|--------------------|-------------------|-------------------|
|--------------------|--------------------|----------3--------|----------3--------|
|------9---10---9----|------9---10---9----|------5-------5----|------5-------5----|
|----7---7----7---7--|----7---7----7---7--|----3---3---3---3--|----3---3---3---3--|
|--------------------|--------------------|-------------------|-------------------|
|--------------------|--------------------|-------------------|-------------------|
|--5-----------------|--5-----------------|--1----------------|--1----------------|
|
|Paul:
|(clean elec.)
|--------------------|--------------------|-------------------|-------------------|
|--6---5-------------|--6---5-------------|--6---5------------|--6---5------------|
|----------5----7----|----------5----7----|----------5--------|--------------5----|
|--------------------|--------------------|--------------8----|----------8--------|
|--------------------|--------------------|-------------------|-------------------|
|--------------------|--------------------|-------------------|-------------------|

Riff 2
Travis:
|--------------------|--------------------|------------------|--------------------|
|------6---8/10------|------6---8/10------|------------------|--------------------|
|----7---7-----------|----7---7-----------|------5---5/7-----|------5---5/7-------|
|--------------------|--------------------|----3---3---------|----3---3-----------|
|--5-----------------|--5-----------------|--1---------------|--1-----------------|
|--------------------|--------------------|------------------|--------------------|
|--------------------|--------------------|------------------|--------------------|
|
|Paul:
|--------------------|--------------------|-------------------|-------------------|
|--6---5-------------|--6---5-------------|--6---5------------|--6---5------------|
|----------5---7-----|----------5---7-----|----------5--------|--------------5----|
|--------------------|--------------------|--------------8----|----------8--------|
|--------------------|--------------------|-------------------|-------------------|
|--------------------|--------------------|-------------------|-------------------|

Riff 3
Travis:
|------5-------------|----------5---------|-------------------|-------------------|
|------6-------------|----------6---------|----------5--------|----------5--------|
|------7-------------|------7---7---------|------5---5--------|------5---5--------|
|----7---------------|----7---7-----------|----3---3-3--------|----3---3-3--------|
|--5-----------------|--5-----------------|--1----------------|--1----------------|
|--------------------|--------------------|-------------------|-------------------|
|--------------------|--------------------|-------------------|-------------------|
|
|Paul:
|--------------------|--------------------|-------------------|-------------------|
|--6---5-------------|--6---5-------------|--6---5------------|--6---5------------|
|----------5---7-----|----------5---7-----|----------5--------|--------------5----|
|--------------------|--------------------|--------------8----|----------8--------|
|--------------------|--------------------|-------------------|-------------------|
|--------------------|--------------------|-------------------|-------------------|

Riff 4
Travis:
(dist. elec)
|--------------------|--------------------|-------------------|--------------------|
|--------------------|--------------------|-------------------|--------------------|
|--------------------|--------------------|-------------------|--------------------|
|--------------------|--------------------|-------------------|--------------------|
|--8-8-8-8-8-8-8-8---|--8-8-8-8-8-8-10----|--7-7-7-7-7-7-7-7--|--7-7-7-7-7-7-10----|
|--8-8-8-8-8-8-8-8---|--8-8-8-8-8-8-10----|--7-7-7-7-7-7-7-7--|--7-7-7-7-7-7-10----|
|--8-8-8-8-8-8-8-8---|--8-8-8-8-8-8-10----|--7-7-7-7-7-7-7-7--|--7-7-7-7-7-7-10----|
|
|Paul:
|(w/dist.)
|--------------------|--------------------|-------------------|-------------------|
|--6---5-------------|--6---5-------------|--6---5------------|--6---5------------|
|----------5---7-----|----------5---7-----|----------5--------|--------------5----|
|--------------------|--------------------|--------------8----|----------8--------|
|--------------------|--------------------|-------------------|-------------------|
|--------------------|--------------------|-------------------|-------------------|

Riff 5
Travis:
|----------------------|---------------------|----------------------|---------------------|
|----------------------|---------------------|----------------------|---------------------|
|--7--7-7-7--7--7-7-7--|--7--7-7-7--7--7--5--|--3--3-3-3--3--3-3-3--|--3--3-3-3--3--3--5--|
|--7--7-7-7--7--7-7-7--|--7--7-7-7--7--7--5--|--3--3-3-3--3--3-3-3--|--3--3-3-3--3--3--5--|
|--5--5-5-5--5--5-5-5--|--5--5-5-5--5--5--3--|--1--1-1-1--1--1-1-1--|--1--1-1-1--1--1--3--|
|--5--5-5-5--5--5-5-5--|--5--5-5-5--5--5--3--|--1--1-1-1--1--1-1-1--|--1--1-1-1--1--1--3--|
|--5--5-5-5--5--5-5-5--|--5--5-5-5--5--5--3--|--1--1-1-1--1--1-1-1--|--1--1-1-1--1--1--3--|

Riff 6
Travis:
(clean elec.)
|--------------------|--------------------|-------------------|-------------------|
|--------------------|--------------------|-------------------|-------------------|
|--7-----------------|----------7---5-----|--3----------------|----------3---5----|
|--7-----------------|----------7---5-----|--3----------------|----------3---5----|
|--5-----------------|----------5---3-----|--1----------------|----------1---3----|
|--5-----------------|----------5---3-----|--1----------------|----------1---3----|
|--5-----------------|----------5---3-----|--1----------------|----------1---3----|
|
|Paul:
|(clean elec.)
|--------------------|--------------------|-------------------|-------------------|
|--6---5-------------|--6---5-------------|--6---5------------|--6---5------------|
|----------5---7-----|----------5---7-----|----------5--------|--------------5----|
|--------------------|--------------------|--------------8----|----------8--------|
|--------------------|--------------------|-------------------|-------------------|
|--------------------|--------------------|-------------------|-------------------|

Song is available for listening/download at www.stage.fm/thecrayolamishap
Tap to rate this tab
# A B C D E F G H I J K L M N O P Q R S T U V W X Y Z