Song name
# A B C D E F G H I J K L M N O P Q R S T U V W X Y Z

Misc Unsigned Bands - Black Equinox Project - In Loving Memory Of tab

Black Equinox Project - In Loving Memory Of...

Words by Shane Bazinet, Music by Travis Lausch

Tuning: Paul: 6-string guitar in standard tuning (E A D G B E). Travis: 7-string guitar 
dropped-A tuning (A E A D G B E)

Intro: piano

Verses:

Riff 1
Travis: Piano
Paul:
|-----------------------------------|-----------------------------------|
|-----------------------------------|-----------------------------------|
|-----------------------------------|-----------------------------------|
|--7-------7-----8---5--------------|--7-------7-----8---5--------------|
|--5-5-5-5-5-5-5-5-5-5-5-5-5-5-5-5--|--5-5-5-5-5-5-5-5-5-5-5-5-5-5-5-5--|
|-----------------------------------|-----------------------------------|

|-----------------------------------|-----------------------------------|
|-----------------------------------|-----------------------------------|
|-----------------------------------|-----------------------------------|
|--5-------5-----3---5--------------|--5-------5-----3---5--------------|
|--3-3-3-3-3-3-3-3-3-3-3-3-3-3-3-3--|--3-3-3-3-3-3-3-3-3-3-3-3-3-3-3-3--|
|-----------------------------------|-----------------------------------|

Riff 2
Travis:
|-----------------------------------|-----------------------------------|
|-----------------------------------|-----------------------------------|
|------2-5-3-2---------2-5-3-2------|------2-5-3-2---------2-5-3-2------|
|----3---------5-3---3---------5-3--|----3---------5-3---3---------5-3--|
|--5---------------5----------------|--5---------------5----------------|
|-----------------------------------|-----------------------------------|
|-----------------------------------|-----------------------------------|
|Paul:
|-----------------------------------|-----------------------------------|
|-----------------------------------|-----------------------------------|
|-----------------------------------|-----------------------------------|
|--7-------7-----8---5--------------|--7-------7-----8---5--------------|
|--5-5-5-5-5-5-5-5-5-5-5-5-5-5-5-5--|--5-5-5-5-5-5-5-5-5-5-5-5-5-5-5-5--|
|-----------------------------------|-----------------------------------|

Travis:
|-----------------------------------|-----------------------------------|
|-----------------------------------|-----------------------------------|
|------0-3-2-0---------0-3-2-0------|------0-3-2-0---------0-3-2-0------|
|----2---------3-2---2---------3-2--|----2---------3-2---2---------3-2--|
|--3---------------3----------------|--3---------------3----------------|
|-----------------------------------|-----------------------------------|
|-----------------------------------|-----------------------------------|
|Paul:
|-----------------------------------|-----------------------------------|
|-----------------------------------|-----------------------------------|
|-----------------------------------|-----------------------------------|
|--5-------5-----3---5--------------|--5-------5-----3---5--------------|
|--3-3-3-3-3-3-3-3-3-3-3-3-3-3-3-3--|--3-3-3-3-3-3-3-3-3-3-3-3-3-3-3-3--|
|-----------------------------------|-----------------------------------|

Chorus:

Travis: Piano
Paul:
|-----------------------------------|-----------------------------------|
|-----------------------------------|-----------------------------------|
|--7-7-7-5-7-7---3---5---5-5-5-5-5--|--7-7-7-5-7-7---3---5---5-5-5-5-5--|
|--7-7-7-5-7-7---3---5---5-5-5-5-5--|--7-7-7-5-7-7---3---5---5-5-5-5-5--|
|--5-5-5-3-5-5---1---3---3-3-3-3-3--|--5-5-5-3-5-5---1---3---3-3-3-3-3--|
|-----------------------------------|-----------------------------------|

|-----------------------------------|-----------------------------------|
|-----------------------------------|-----------------------------------|
|--7-7-7-5-7-7---3---5---5-5-5-5-5--|--3-3-3-3-5-5---7---7-7-7-7-7-7-7--|
|--7-7-7-5-7-7---3---5---5-5-5-5-5--|--3-3-3-3-5-5---7---7-7-7-7-7-7-7--|
|--5-5-5-3-5-5---1---3---3-3-3-3-3--|--1-1-1-1-3-3---5---5-5-5-5-5-5-5--|
|-----------------------------------|-----------------------------------|


Guitar Solo (w/verse)
Travis:
|----------------10--------------------13---12-13-15---18---17-15--|
|-------------------10-13b15---13--10------------------------------|
|------10-12b14----------------------------------------------------|
|--/12-------------------------------------------------------------|
|------------------------------------------------------------------|
|------------------------------------------------------------------|
|------------------------------------------------------------------|

|--17p15\13h15p13\12h13p12\10h12p10----10----------------------------------13-----12----10----12-----|
|-----------------------------------13----13---10--11-10h11p10----10----10-----10----10----10----10--|
|--------------------------------------------------------------12----12------------------------------|
|----------------------------------------------------------------------------------------------------|
|----------------------------------------------------------------------------------------------------|
|----------------------------------------------------------------------------------------------------|
|----------------------------------------------------------------------------------------------------|

|--13----13-----/22~~~~~~~~~--22-22-22-22p20\18h20p18\17h18p17\15h17p15\13h15p13\12h13p12\10------|
|--------------------------------------------------------------------------------------------13---|
|-------------------------------------------------------------------------------------------------|
|-------------------------------------------------------------------------------------------------|
|-------------------------------------------------------------------------------------------------|
|-------------------------------------------------------------------------------------------------|
|-------------------------------------------------------------------------------------------------|

|--10h12p10---------10h12p10----10-12-12b13~~~-10---------------------------------------------------|
|-----------13~~~~-----------13-------------------13---10-13---10h13p10----10-------10--------------|
|-----------------------------------------------------------------------12----12b14----12-10-12-10--|
|---------------------------------------------------------------------------------------------------|
|---------------------------------------------------------------------------------------------------|
|---------------------------------------------------------------------------------------------------|
|---------------------------------------------------------------------------------------------------|

|-----------10----------10----------10----------10----------10--------10--------10---------10-12-b13r12-10----10-12--|
|--------10----------10----------10----------10----------10----13b15-----13b15-----13b15-------------------13--------|
|--12b14-------12b14-------12b14-------12b14-------12b14-------------------------------------------------------------|
|--------------------------------------------------------------------------------------------------------------------|
|--------------------------------------------------------------------------------------------------------------------|
|--------------------------------------------------------------------------------------------------------------------|
|--------------------------------------------------------------------------------------------------------------------|

|--10~~~----------------------------------------------------------------------------------------------|
|--------13-10-13----/13-10~~~----------------------------------------------------10------------------|
|-------------------------------12-10h12p10\9-9h10p9----------9h10-------10-12b14----12b14r12p10------|
|----------------------------------------------------12-10h12------10/12--------------------------12--|
|-----------------------------------------------------------------------------------------------------|
|-----------------------------------------------------------------------------------------------------|
|-----------------------------------------------------------------------------------------------------|

|-----------10-----------------10-----------------10-----------------10--------10--12--13--12--13--15---|
|--------10----13b15--------10----13b15--------10----13b15--------10----13b15---------------------------|
|--12b14--------------12b14--------------12b14--------------12b14---------------------------------------|
|-------------------------------------------------------------------------------------------------------|
|-------------------------------------------------------------------------------------------------------|
|-------------------------------------------------------------------------------------------------------|
|-------------------------------------------------------------------------------------------------------|

|--15b17---15---13---12---13p12----------------------------------------------|
|-------------------------------13-------------------------------------------|
|----------------------------------12\10-10~~-9~~-10p9----9------------------|
|------------------------------------------------------10---12---\10---/12\--|
|----------------------------------------------------------------------------|
|----------------------------------------------------------------------------|
|----------------------------------------------------------------------------|

Song is available for listening/download at www.stage.fm/thecrayolamishap
Tap to rate this tab
 
# A B C D E F G H I J K L M N O P Q R S T U V W X Y Z