Song name
# A B C D E F G H I J K L M N O P Q R S T U V W X Y Z

Misc Unsigned Bands - Chelsea Opened Wide - Lions And Cardinals tab

#-----------------------------------------------------------------------------#
#-- File created with Instab - http://www.pconline.com/~smcarey/instab.html --#
#-----------------------------------------------------------------------------#

Author/Artist: Chelsea opened wide
Title: Lions and Cardinals
Album: unreleased
main riff:
------------------------------------------------------------------------------|
------------------------------------------------------------------------------|
------------------------------------------------------------------------------|
--------------------------------------------------7----7----7-/---------------|
---9---9---9---9----9----9-\----7----7----7-\--55---55---55--------7----7-----|
-7---7---7---77--77---77-----55---55---55-----------------------55---55-------|


------|-----------------------------------------------------------------------|
------|-----------------------------------------------------------------------|
------|-----------------------------------------------------------------------|
------|-x2--------------------------------------------------------------------|
---7--|-----------------------------------------------------------------------|
-55---|-----------------------------------------------------------------------|

chorus (w/ heavy distortion)         end and ring on 442
-------------------------------|----------------------------------------------|
-------------------------------|----------------------------------------------|
-----------------7-7x----------|----------------------------------------------|
--9-9x-7---------7-7x-5--------|-x4----555----4-------------------------------|
--9-9x-7-******--5-5x-5-******-|-------555--\-4-------------------------------|
--7-7x-5--------------3--------|-------333----2-------------------------------|
Tap to rate this tab
# A B C D E F G H I J K L M N O P Q R S T U V W X Y Z