Song name
# A B C D E F G H I J K L M N O P Q R S T U V W X Y Z

Misc Unsigned Bands - Chelsea Opened Wide - Watson Street tab

#----------------------------------PLEASE NOTE--------------------------------#
#This file is the author's own work and represents their interpretation of the#
#song. You may only use this file for private study, scholarship, or research.#
#-----------------------------------------------------------------------------#

Artist: Chelsea Opened Wide
Song: Watson Street
Album: Chelsea Opened Wide EP


Intro + Chorus  (repeat 4 x)
------------------------------------------------------------------------------
------------------------------------------------------------------------------
------------------------------------------------------------------------------
------0---------0---------0---------0---------0---------0---------------------
---10---10---10---10---10---10---10---10---10---10---10---10-^^^^^------------
-8---------8---------0---------0---------8---------8--------------------------
                                                                              

------------------------------------------------------------------------------
------------------------------------------------------------------------------
------------------------------------------------------------------------------
-0--0--/-2-^^^--8-8-3---------------------------------------------------------
-10-10-/-2-^^^--8-8-3---------------------------------------------------------
-8--8--/-0-^^^--6-6-1---------------------------------------------------------
                                                                              

Outro
------------------------------------------------------------------------------
------------------------------------------------------------------------------
------------------------------------------------------------------------------
-------0----------0---------0-------------0--0--/x2----2---8-8--3-3x2---------
----10---10----10---10---10---10----------10-10-/x2----2---8-8--3-3x2---------
--8----------8---------0----------0^^^^^--8--8--/x0----0---6-6--1-1x0---------C
Tap to rate this tab
# A B C D E F G H I J K L M N O P Q R S T U V W X Y Z