Song name
# A B C D E F G H I J K L M N O P Q R S T U V W X Y Z

Misc Unsigned Bands - Micro - Teenage Years Mis tab

Intro:


Guitar 1:


 E -------------------------------------------|
 B -------------------------------------------|
 G -------------------------------------------|
 D -6---9---4---2--4-------6---9---4---2--4---|
 A -6---9---4---2--4-------6---9---4---2--4---|
 E -4---7---2---0--2-------4---7---2---0--2---|

Guitar 2:


 E ------------------------------------------|
 B ------------------------------------------|
 G ------------------------------------------|
 D ------9----------------------9------------|
 A --6-------4---2--4-------6-------4---2--4-|
 E ------------------------------------------|


Guitar 3:


 E -21--19------21--19------21--19------21--19-----|
 B --------19----------19-----------19----------19-|
 G ------------------------------------------------|
 D ------------------------------------------------|
 A ------------------------------------------------|
 E ------------------------------------------------|


Intro Part Two:

Guitar 1:

 E -------------------------------------|
 B -------------------------------------|
 G -------------------------------------|
 D -66666666-44444444-22222222-44444444-|
 A -66666666-44444444-22222222-44444444-|
 E -44444444-22222222-00000000-22222222-|

 play 3 times couting ^ that one

Guitar 2:

 E ------------------------------------------|
 B ------------------------------------------| play twice but
 G ------------------------------------------| when guitar one hits the notes
 D ------9----------------------9------------|
 A --6-------4---2--4-------6-------4---2--4-|
 E ------------------------------------------|

 E -------------------7-----------------------------|
 B -9--7--5--7---9--7---7---9--7---5--7-------------|
 G -------------------------------------6-6h7-6-6h7-|
 D -------------------------------------------------|
 A -------------------------------------------------|
 E -------------------------------------------------|


Guitar 3:

come in when guitar 2 plays riff


 E --------------------------19--------------------------------------|
 B -21--19--17--19---21--19------19---21--19--17--19-----------------|
 G --------------------------------------------------16-16h17--16h17-|
 D ------------------------------------------------------------------|
 A ------------------------------------------------------------------|
 E ------------------------------------------------------------------|
Tap to rate this tab
# A B C D E F G H I J K L M N O P Q R S T U V W X Y Z