Song name
# A B C D E F G H I J K L M N O P Q R S T U V W X Y Z

Misc Unsigned Bands - Autumn Illusion - Something I Belive In tab

Intro/Verses:
E|-6----6-6-6----6-6-|-2----2-2-2----2-2-|
B|-7----7-7-7----7-7-|-2----2-2-2----2-2-|
G|-8----8-8-8----8-8-|-4----4-4-4----4-4-|
D|-8----8-8-8----8-8-|-4----4-4-4----4-4-|
A|-6----6-6-6----6-6-|-2----2-2-2----2-2-|
E|-------------------|-------------------|

Chorus:
E|-2---2---2-2---2--2-|-4---4---4-4---4--4-|-6---6---6-6---6--6-|-2---2---2-2---2--2-|
B|-2---2---2-2---2--2-|-4---4---4-4---4--4-|-7---7---7-7---7--7-|-2---2---2-2---2--2-|
G|-3---3---3-3---3--3-|-6---6---6-6---6--6-|-8---8---8-8---8--8-|-4---4---4-4---4--4-|
D|-4---4---4-4---4--4-|-6---6---6-6---6--6-|-8---8---8-8---8--8-|-4---4---4-4---4--4-|
A|-4---4---4-4---4--4-|-4---4---4-4---4--4-|-6---6---6-6---6--6-|-2---2---2-2---2--2-|
E|-2---2---2-2---2--2-|--------------------|--------------------|--------------------| x2

Post-Chorus:
E|-2---2---2-2---2--2-|-2~-|
B|-2---2---2-2---2--2-|-2~-|
G|-3---3---3-3---3--3-|-4~-|
D|-4---4---4-4---4--4-|-4~-|
A|-4---4---4-4---4--4-|-2~-|
E|-2---2---2-2---2--2-|----|

Middle 8:
E|---------|---------|---------|---------|
B|---------|---------|---------|---------|
G|-8-8---8-|-4-4---4-|---------|-6-6-4-4-|
D|-8-8---8-|-4-4---4-|-4-4---4-|-6-6-4-4-|
A|-6-6---6-|-2-2---2-|-4-4---4-|-4-4-2-2-|
E|---------|---------|-2-2---2-|---------| x2

E|-6----6-6-6----6-6-|-2----2-2-2----2-2-|
B|-7----7-7-7----7-7-|-2----2-2-2----2-2-|
G|-8----8-8-8----8-8-|-4----4-4-4----4-4-|
D|-8----8-8-8----8-8-|-4----4-4-4----4-4-|
A|-6----6-6-6----6-6-|-2----2-2-2----2-2-|
E|-------------------|-------------------| x2

Verse
Chorus
Verse
Chorus
Middle 8
Chorus
Verse
Chorus x2
Tap to rate this tab
# A B C D E F G H I J K L M N O P Q R S T U V W X Y Z