Song name
# A B C D E F G H I J K L M N O P Q R S T U V W X Y Z

Misc Unsigned Bands - Always My Enemy - Get Your Hands Off My Sandwich tab

verse 1
0-0-0-0-0-----------0-0-0-0-0---------0-0-0-0-0-----------5--3--2- x4 0~~-|
0-0-0-0-0-5-8-7-5-3-0-0-0-0-0-5-8-7-8-0-0-0-0-0-5-8-7-5-3-5--3--2-    0~~-|
0-0-0-0-0-----------0-0-0-0-0---------0-0-0-0-0-----------5--3--2-    0~~-|
------------------------------------------------------------------    ----|
------------------------------------------------------------------    ----|
------------------------------------------------------------------    ----|

verse 2
0-0-0-0-0-0-0-0-0-0-0-0-0-0-0-0-0-0-0-0-0-0-0-0---------|
0-0-0-0-0-0-0-0-0-0-0-0-0-0-0-0-0-0-0-0-0-0-0-0---------|
0-0-0-0-0-0-0-0-0-0-0-0-0-0-0-0-0-0-0-0-0-0-0-0-------8-|
------------------------------------------------8hp7hp--|
--------------------------------------------------------|
--------------------------------------------------------|

0-0-0-0-0-0-0-0-0-0-0-0-0-0-0-0---------------------------    0~~-|
0-0-0-0-0-0-0-0-0-0-0-0-0-0-0-0-------------5hp3hp--------    0~~-|
0-0-0-0-0-0-0-0-0-0-0-0-0-0-0-0-8hp7hp------------5hp3hp--    0---|~ {4sec}
--------------------------------------8hp7hp--------------    ----|
----------------------------------------------------------  x ----|
----------------------------------------------------------    ----|

verse 3
--------------------------------------------      0~~
88887777888877771010101088881212121210101010      0~~
-------------------------------------------- [x8] 0---|~ {6 secs}
--------------------------------------------      ----|
--------------------------------------------      ----|
--------------------------------------------      ----|

verse 4
00-00-0000-    00-000-------------------|
00-00-0000- x3 00-000-------------------| x1
00-00-0000-    00-000-------------------|    x4
-----------    -----87-109-1211-15------|
-----------    -------------------------|
-----------    -------------------------|

(4 second pause)

verse 5
0~~3~~2~~5~~3~~7~~5~~~
0~~3~~2~~5~~3~~7~~5~~~
0~~3~~2~~5~~3~~7~~5~~~ x 4
----------------------|
----------------------|
----------------------|

verse 6 (clean)
-------------------------|
2--2--2--2--3--3--3--3---|
2--2--2--2--5--5--5--5---|  x8
-------------------------|
-------------------------|
-------------------------|
Tap to rate this tab
# A B C D E F G H I J K L M N O P Q R S T U V W X Y Z