Song name
# A B C D E F G H I J K L M N O P Q R S T U V W X Y Z

Misc Unsigned Bands - Synthetic Memories - The Unnamed Song tab

e|-0-0-1-3-3-1-0----------0---0---------------------------------------------|
B|----------------3-1-1-3----------3-3--------------------------------------|
G|--------------------------------------------------------------------------|
D|--------------------------------------------------------------------------|
A|--------------------------------------------------------------------------|
E|--------------------------------------------------------------------------|

e|-0-0-1-3-3-1-0----------0---3---------------------------------------------|
B|----------------3-1-1-3-------1-1-----------------------------------------|
G|--------------------------------------------------------------------------|
D|--------------------------------------------------------------------------|
A|--------------------------------------------------------------------------|
E|--------------------------------------------------------------------------|
Tap to rate this tab
# A B C D E F G H I J K L M N O P Q R S T U V W X Y Z