Song name
# A B C D E F G H I J K L M N O P Q R S T U V W X Y Z

Misc Unsigned Bands - Krown Of Thorns - Im Sorry tab

(INTRO)
E---------------------------------------------------------------------|
B---------------------------------------------------------------------|
G---------------------------------------------------------------------|
D---------------------------------------------------------------------|
A---9---9---9---9----5---5---5---5----7---7---7---7---7---7---7---7---|
E-7---7---7---7----3---3---3---3----5---5---5---5---5---5---5---5-----|


E-------------------------------------------|
B-------------------------------------------|
G-------------------------------------------|
D-------------------------------------------|
A---9---9---9---9----5---5---5---5--7-------|
E-7---7---7---7----3---3---3---3----5-------|


VERSES/CHORUS
E------------------------------------------|
B------------------------------------------|
G------------------------------------------|
D------------------------------------------|
A--9-9-X-X--5-5-X-X--7-7-7-7-7-7-----------|
E--7-7-X-X--3-3-X-X--5-5-5-5-5-5-----------|

BRIDGE/PRE CHORUS
E-------------------------------------|
B-------------------------------------|
G-------------------------------------|
D-------------------------------------|
A-7--5--7----777----------------------|
E-9--3--5----555----------------------|
Tap to rate this tab
# A B C D E F G H I J K L M N O P Q R S T U V W X Y Z