Song name
# A B C D E F G H I J K L M N O P Q R S T U V W X Y Z

Misc Unsigned Bands - Call It A Movement - Reach For The Sky tab

Help us improve GuitareTab! Take a short survey!
--------5---5---------------5---5---------------5----5-----------|
--------3---3---------------3---3---------------2----2/3---------|
--------------------0--------------------------------------------|
--4-------------4------2------------2---4---0--------------------|
-----------------------------------------------------------------|
-----------------------------------------------------------------|

--------5---5---------------5---5---------------5----5-----------|
--------3---3---------------3---3---------------2----2/3---------|
--------------------0--------------------------------------------|
--4-------------4------2------------2---4---0--------------------|
-----------------------------------------------------------------|
-----------------------------------------------------------------|
Related for Call It A Movement - Reach For The Sky tab