Song name
# A B C D E F G H I J K L M N O P Q R S T U V W X Y Z

Misc Unsigned Bands - Lifeline - Degrading Of The Perfect tab

Help us improve GuitareTab! Take a short survey!
"Degrading of the perfect" by LIFELINE

The unsigned band of which I am a member. The strumming's a bit wild with the chords, so 
probably won't be able to play it to the correct rythm by reading it.

Tabbed by UMBREO


VERSE 1

e|--0-0-0-0h1-1-1-1-1-0-0-0-0h1-1-1-1-1-|
B|---1-1-1---1-1-1-1---1-1-1---1-1-1-1--|
G|-0-----------------0------------------|
D|--------------------------------------|
A|--------------------------------------|
E|--------------------------------------| Repeating until end of verse

CHORUS

e|-------------------------------------------------|
B|-------------------------------------------------|
G|-555555------------------555555------------------|
D|-555555-5555-333333-5555-555555-5555-333333-5555-|
A|-333333-5555-333333-5555-333333-5555-333333-5555-|
E|--------3333-111111-3333--------3333-111111-3333-| Repeat through chorus

VERSE 2

e|-------------------------|
B|-------55555-------55555-|
G|-55555-55555-55555-55555-|
D|-55555-33333-55555-33333-|
A|-33333--------33333------|
E|-------------------------| Repeating until end of verse

(CHORUS)

INSTRUMENTAL BREAK

e|--3333333--1111111--00000001101110-|
B|--1111111--1111111--1111111--------|
G|-0---------------------------------|
D|----------0------------------------|
A|-------------------0---------------|
E|-----------------------------------| X 2

CODA

e|--0-0-0-0h1-1-1-1-1-0-0-0-0h1-1-1-1-1-|
B|---1-1-1---1-1-1-1---1-1-1---1-1-1-1--|
G|-0-----------------0------------------|
D|--------------------------------------|
A|--------------------------------------|
E|--------------------------------------| X 2

End
Related for Lifeline - Degrading Of The Perfect tab