Guitaretab - guitar tabs
Song name
# A B C D E F G H I J K L M N O P Q R S T U V W X Y Z

Misc Unsigned Bands - The Entire Soup Of The Day - A Lifetime Abroad tab

Intro:
E---------------------------------------------------------------------|
B------3-------3-------3-------3-------3-------3-------3-------3------|
G----3---3---3---3---3---3---3---3---3---3---3---3---3---3---3---3----|  (x2)
D----------------------------------1-------1-------3-------0----------|
A--1-------1-------3-------3------------------------------------------|
E---------------------------------------------------------------------|


Verse:
E----------------------------------------        E-----------------------|
B--33-3333--55-5555----------------------        B-----------xxxxxxxx----|
G--33-3333--55-5555--33-3333-------------  (x4)  G-----------xxxxxxxx----|
D--11-1111--33-3333--33-3333--55-5555----        D--33-3333--xxxxxxxx----|
A--------------------11-1111--55-5555----        A--33-3333--------------|
E-----------------------------33-3333----        E--11-1111--------------|


Chorus:
E-------------------------------------------------------------------------|
B--3333333333333333--------------------------------------55555555--3333---|
G--3333333333333333--3333333333333333--------------------55555555--3333---|
D--1111111111111111--3333333333333333--5555555555555555--33333333--1111---|
A--------------------1111111111111111--5555555555555555-------------------|
E--------------------------------------3333333333333333-------------------|

Chorus Continued:
E--------------------------------------------|
B--55555555--3333--5555--3333333333333333----|
G--55555555--3333--5555--3333333333333333----|  (X2)
D--33333333--1111--3333--1111111111111111----|
A--------------------------------------------|
E--------------------------------------------|


Verse:
E----------------------------------------        E-----------------------|
B--33-3333--55-5555----------------------        B-----------xxxxxxxx----|
G--33-3333--55-5555--33-3333-------------  (x4)  G-----------xxxxxxxx----|
D--11-1111--33-3333--33-3333--55-5555----        D--33-3333--xxxxxxxx----|
A--------------------11-1111--55-5555----        A--33-3333--------------|
E-----------------------------33-3333----        E--11-1111--------------|


Chorus:
E-------------------------------------------------------------------------|
B--3333333333333333--------------------------------------55555555--3333---|
G--3333333333333333--3333333333333333--------------------55555555--3333---|
D--1111111111111111--3333333333333333--5555555555555555--33333333--1111---|
A--------------------1111111111111111--5555555555555555-------------------|
E--------------------------------------3333333333333333-------------------|
[ Tab from: http://www.guitaretab.com/m/misc-unsigned-bands/93358.html ]
Chorus Continued:
E--------------------------------------------|
B--55555555--3333--5555--3333333333333333----|
G--55555555--3333--5555--3333333333333333----|  (x2)
D--33333333--1111--3333--1111111111111111----|
A--------------------------------------------|
E--------------------------------------------|


Interlude:
E---------------------------------|
B--------------------3-4-3--------|
G------3-----3-----3-------3-3----|  (x2)
D--1-3---1-----1-3----------------|
A----------3----------------------|
E---------------------------------|


Chorus:
E-------------------------------------------------------------------------|
B--3333333333333333--------------------------------------55555555--3333---|
G--3333333333333333--3333333333333333--------------------55555555--3333---|
D--1111111111111111--3333333333333333--5555555555555555--33333333--1111---|
A--------------------1111111111111111--5555555555555555-------------------|
E--------------------------------------3333333333333333-------------------|

Chorus Continued:
E--------------------------------------------|
B--55555555--3333--5555--3333333333333333----|
G--55555555--3333--5555--3333333333333333----|  (x3)
D--33333333--1111--3333--1111111111111111----|
A--------------------------------------------|
E--------------------------------------------|


Outro:
E---------------------------------------------------------------------|
B------3-------3-------3-------3-------3-------3-------3-------3--3---|
G----3---3---3---3---3---3---3---3---3---3---3---3---3---3---3----3---|
D----------------------------------1-------1-------3--------------1---|
A--1-------1-------3-------3-------------------------------0----------|
E---------------------------------------------------------------------|

Lyrics:
America is overrated; these boring accents are so outdated
She cast a wicked spell on me, that stupid witch Hermione
Simon Pegg, sign my beret! I wanna sip some Earl Grey
But Iíd have to cross the pond; Iíll be there before too long

I think England is my home, Far away but set in stone
I am late for supper but I donít care cause I am all alone

I think England is my home, Far away but set in stone
I am late for supper but I donít care cause I am all alone

I love the way they say my name; Cricket is my favorite game
I canít wait to meet the Queen, then the Clash and Mr. Bean
Those Double Deckers got me stoked; but Iím sick of the baroque
I donít care what Jenkins says, London Calling or drop dead (Or drop dead!)

I think England is my home, Far away but set in stone
I am late for supper but I donít care cause I am all alone

I think England is my home, Far away but set in stone
I am late for supper but I donít care cause I am all alone

1, 2, 3, Go!

[Interlude Thing]

I think England is my home, Far away but set in stone
I am late for supper but I donít care cause I am all alone

I think England is my home, Far away but set in stone
I am late for supper but I donít care cause I am all alone

I donít know if Iíll survive, Catch the wave but miss the dive
Iíll be there a bit too early; Piccadilly, come alive!
Related for The Entire Soup Of The Day - A Lifetime Abroad tab