Song name
# A B C D E F G H I J K L M N O P Q R S T U V W X Y Z

Misc Unsigned Bands - Lojic - Father Time tab

'Lojic'
Song:Father Time
Tuning:EADGBe
================
Intro
=======
1-17-13-------17-13-------17-13-------17-13----------|
2-------17-13-------17-13-------17-13-------17-13----|
3----------------------------------------------------|
4----------------------------------------------------|
5----------------------------------------------------|
6----------------------------------------------------|

1-16-12-------16-12-------16-12------16-12-----------|
2-------16-12-------16-12-------16-12------16-12-----|
3----------------------------------------------------|
4----------------------------------------------------|
5----------------------------------------------------|
6----------------------------------------------------|

Riff 1:Palm muted
==================
1----------------------------------------------------|
2----------------------------------------------------|
3----------------------------------------------------|
4--3-3-3--3-3-3--5-5-5--2-2-2--2-2-2-----------------|
5--3-3-3--3-3-3--5-5-5--2-2-2--2-2-2-----------------|
6--1-1-1--1-1-1--3-3-3--0-0-0--0-0-0-----------------|
   P P    P P    P P    P P    P P

riff
=======
1-17-13-------17-13-------17-13-------17-13----------|
2-------17-13-------17-13-------17-13-------17-13----|
3----------------------------------------------------|
4----------------------------------------------------|
5----------------------------------------------------|
6----------------------------------------------------|

1-16-12-------16-12-------16-12------16-12-----------|
2-------16-12-------16-12-------16-12------16-12-----|
3----------------------------------------------------|
4----------------------------------------------------|
5----------------------------------------------------|
6----------------------------------------------------|

Riff 2
=======
1---------------------------------------------------|
2---------------------------------------------------|
3---------------------------------------------------|
4---------------------------------------------------|
5-10-9-7-9-3-2-2-2----10-9-7-9-12-14-2-2------------|
6--8-7-5-7-1-0-0-0-----8-7-5-7-10-12-0-0------------|

Riff 3
=======
1------------------------------------------------------|
2------------------------------------------------------|
3------------------------------------------------------|
4------------------------------------------------------|
5------------------------------------------------------|
6--12-14-0-0-13-12-13-1-0-1--12-13-000-12-14-000-12-14-|
*It might not be played exactly but these are the right notes*
Tap to rate this tab
# A B C D E F G H I J K L M N O P Q R S T U V W X Y Z