Song name
# A B C D E F G H I J K L M N O P Q R S T U V W X Y Z

Misc Unsigned Bands - The Street Pharmacy - In This Town tab

First Tab so bare with me:P.
Figure out strunning yourself.
Tuning: Standard

Intro
E--------------3
B--------------0
G--------------0
D-----9---10---0
A-----10--10---2
E-----7---8----3

Verses
E--------------3
B--------------0
G--------------0
D-----9---10---0
A-----10--10---2
E-----7---8----3

Chorus
E--0--0--3--2h3----0--0--3--2h3--0-0....
B--0--1--0--3------0--1--0--3----0-0....
G--0--0--0--2------0--0--0--2----0-0....
D--2--2--0--0------2--2--0--0----2-2....
A--2--3--2--0------2--3--2--0----2-2....
E--0--0--3---------0--0--3-------0-0....

Song Setup
Intro x2
verse x4
chorus x1
verse x6
chorus x1
verse x6
chorus x1
intro but play first 2 twice and G once.
Tap to rate this tab
# A B C D E F G H I J K L M N O P Q R S T U V W X Y Z