Song name
# A B C D E F G H I J K L M N O P Q R S T U V W X Y Z

Misc Unsigned Bands - Edrenalynn - Why tab

Help us improve GuitareTab! Take a short survey!
----------------------------------------------------------------------------
			     Why? - Edrenalynn
----------------------------------------------------------------------------
Tabbed by: Me!
Email: adiosk8r660@hotmail.com

Tuning: E standard
INTRO!
e|--------------------------------------------------------------------------|
B|--------------------------------------------------------------------------|
G|-2-2---5-5-4-5-4---------7-7-5-4-5---------5-5-4-5-4----------------------|
D|-2-2---------------5-5----------------------------------------------------|
A|-0-0---------------3-3---------------5-5---------------7-7-7---9-9-9-9----|
E|-------------------------------------3-3---------------5-5-5---7-7-7-7----|

e|--------------------------------------------------------------------------|
B|--------------------------------------------------------------------------|
G|-2-2---5-5-4-5-4---------7-7-5-4-5---------5-5-4-5-4----------------------|
D|-2-2---------------5-5----------------------------------------------------|
A|-0-0---------------3-3---------------5-5---------------7-7-7---9-9-9-9----|
E|-------------------------------------3-3---------------5-5-5---7-7-7-7----|

CHORUS!
e|--------------------------------------------------------------------------|
B|--------------------------------------------------------------------------|
G|-2-2-2-2-2-2-2---5-4-5-------------------7-5-4--------------------5-4-5---|
D|-2-2-2-2-2-2-2-----------5-5-5-5-5-5-5------------------------------------|
A|-0-0-0-0-0-0-0----0-0----3-3-3-3-3-3-3----3-3-3---5-5-5-5-5-5-5-----------|
E|---x-x-x-x-x-x----x-x------x-x-x-x-x-x----x-x-x---3-3-3-3-3-3-3----3-3----|
                                                      x x x x x x    x x
e|--------------------------------------------------------------------------|
B|--------------------------------------------------------------------------|
G|--------------------------------------------------------------------------|
D|--------------------------------------------------------------------------|
A|-7-7-7-7-7-7-7---9-9-9-9-9-9-9--------------------------------------------|
E|-5-5-5-5-5-5-5---7-7-7-7-7-7-7--------------------------------------------|
     x x x x x x     x x x x x x


| /  slide up
| \\  slide down
| h  hammer-on
| p  pull-off
| ~  vibrato
| +  harmonic
| x  Mute note
============================================================================
Related for Edrenalynn - Why tab