Guitaretab - guitar tabs
Song name
# A B C D E F G H I J K L M N O P Q R S T U V W X Y Z

Misc Unsigned Bands - Rump-le - Public Aid tab

i got this song form More Lies From The Underground. Itís a compilation of punk bands

Guitar 1
e---------------------------|
B---------------------------|
G----10x4--11-10--s6x4---8--|  play 8 times.
D---------------------------|
A---------------------------|
E---------------------------|

Guitar 2
in the beginning your just hitting the power chord later in around 16-43 sec you speed 
playing with the same rythem as guitar 1
e---------------------|
B---------------------|
G---------------------|
D----8--9--8--4--6----|
A----8--9--8--4--6----|
E----6--7--6--2--4----|
[ Tab from: http://www.guitaretab.com/m/misc-unsigned-bands/93660.html ]
From 44sec -1:45
e---------------------|
B---------------------|
G---8---------4--6----|
D---8--6---8--4--6----|
A---6--6---8--2--4----|
E------4---6----------|

From 1:46-1:59
PM...................
e---------------------|
B---------------------|
G---------------------|
D----8---4---6--------|
A----8---4---6--------|
E----6---2---4--------|

outro

Guitar 1
e---------------------------|
B---------------------------|
G----10x4--11-10--s6x4---8--|
D---------------------------|
A---------------------------|
E---------------------------|

Guitar 2

e---------------------|
B---------------------|
G---------------------|
D----8--9--8--4--6----|
A----8--9--8--4--6----|
E----6--7--6--2--4----|
Related for Rump-le - Public Aid tab