Song name
# A B C D E F G H I J K L M N O P Q R S T U V W X Y Z

Misc Unsigned Bands - Rump-le - Foundation tab

another More Lies From The Underground CD. any questions or comments e-mail me at
coconut_joes_666@hotmail.com\

Verse 1
  pm..........
e------------------|
B------------------|
D----5-x16---3-x16-|
G----5-------3-----|
A----3-------1-----|
D------------------|

Verse 2 
i might be off on the strumming
e------------------|
B------------------|
G----5-------3-----| 
D----5-x10---3-x10-|
A----3-------1-----|
D------------------|

Chorus
e---------------------------|
B-PM....--------------------|
G--2------------------------|
D--2-x16-------0------3-----|
A--0-----------0-x10--3x10--|
D--------------0------3-----|

order
Verse 1 
Verse 2 
Chorus
Verse 1
Verse 2 
Chorus
Tap to rate this tab
 
# A B C D E F G H I J K L M N O P Q R S T U V W X Y Z