Song name
# A B C D E F G H I J K L M N O P Q R S T U V W X Y Z

Misc Unsigned Bands - September Solstice - Purgatory tab

September Solstice
PURGATORY

*Guitar 1* (patsena)

Intro

e -------------------------------------------------------------------|
b ---------0----------------0---------------0----------------0-------|
g -----7-----7---7------7----7---7------7-----7---7------7-----7---7-|
d ---5---5-----5------5---5----5------5---5-----5------4---4-----4---|
a -7----------------7---------------3----------------5---------------|
d -------------------------------------------------------------------|

e -------------------------------------------------------------------|
b ---------0----------------0---------------0--------0~--------------|
g -----7-----7---7------7----7---7------7-----7---7--7~--------------|
d ---5---5-----5------5---5----5------5---5-----5----4~--------------|
a -7----------------7---------------3----------------5~--------------|
d -------------------------------------------------------------------|

Verse

e -------------------------------------------------------------------|
b ---------0----------------0---------------0----------------0-------|
g -----7-----7---7------7----7---7------7-----7---7------7-----7---7-|
d ---5---5-----5------5---5----5------5---5-----5------4---4-----4---|
a -7----------------7---------------3----------------5---------------|
d -------------------------------------------------------------------|

e -------------------------------------------------------------------|
b ---------0----------------0---------------0----------------0-------|
g -----7-----7---7------7----7---7------7-----7---7------7-----7---7-|
d ---5---5-----5------5---5----5------5---5-----5------4---4-----4---|
a -7----------------7---------------3----------------5---------------|
d -------------------------------------------------------------------|

e -------------------------------------------------------------------|
b ---------0----------------0---------------0----------------0-------|
g -----7-----7---7------7----7---7------7-----7---7------7-----7---7-|
d ---5---5-----5------5---5----5------5---5-----5------4---4-----4---|
a -7----------------7---------------3----------------5---------------|
d -------------------------------------------------------------------|

e -------------------------------------------------------------------|
b ---------0----------------0---------------0----------------0-------|
g -----7-----7---7------7----7---7------7-----7---7------7-----7---7-|
d ---5---5-----5------5---5----5------5---5-----5------4---4-----4---|
a -7----------------7---------------3----------------5---------------|
d -------------------------------------------------------------------|

*bass tapping part*

g -------------t12p9--------------------t12p9------------------------|
d -------t12p9-------t12p9--------t12p9-------t12p9------------------|
a -t12p7--------------------t12p7------------------------------------|
d -------------------------------------------------------------------|

g -------------t12p5--------------------t12p7------------------------|
d -------t12p5-------t12p5--------t12p7-------t12p7------------------|
a -t12p3--------------------t12p5------------------------------------|
d -------------------------------------------------------------------|

g -------------t12p9--------------------t12p9------------------------|
d -------t12p9-------t12p9--------t12p9-------t12p9------------------|
a -t12p7--------------------t12p7------------------------------------|
d -------------------------------------------------------------------|

g -------------t12p5-------------------------------------------------|
d -------t12p5-------t12p5-------------------------------------------|
a -t12p3--------------------t12~-------------------------------------|
d -------------------------------------------------------------------|

Verse

e -------------------------------------------------------------------|
b ---------0----------------0---------------0----------------0-------|
g -----7-----7---7------7----7---7------7-----7---7------7-----7---7-|
d ---5---5-----5------5---5----5------5---5-----5------4---4-----4---|
a -7----------------7---------------3----------------5---------------|
d -------------------------------------------------------------------|

e -------------------------------------------------------------------|
b ---------0----------------0---------------0----------------0-------|
g -----7-----7---7------7----7---7------7-----7---7------7-----7---7-|
d ---5---5-----5------5---5----5------5---5-----5------4---4-----4---|
a -7----------------7---------------3----------------5---------------|
d -------------------------------------------------------------------|

e -------------------------------------------------------------------|
b ---------0----------------0---------------0----------------0-------|
g -----7-----7---7------7----7---7------7-----7---7------7-----7---7-|
d ---5---5-----5------5---5----5------5---5-----5------4---4-----4---|
a -7----------------7---------------3----------------5---------------|
d -------------------------------------------------------------------|


e -------------------------------------------------------------------|
b ---------0----------------0-------0~----------------0~-------------|
g -----7-----7---7------7----7---7--7~----------------7~-------------|
d ---5---5-----5------5---5----5----5~----------------4~-------------|
a -7----------------7---------------3~----------------5~-------------|
d -------------------------------------------------------------------|

Chorus

e -------------------------------------------------------------------|
b -7-7--7-7--8-8--8-8--8-8-8-8------3~----------------3~-------------|
g -0-0--0-0--0-0--0-0--0-0-0-0------0~----------------0~-------------|
d -x-x--x-x--x-x--x-x--x-x-x-x------x-----------------x--------------|
a -7-7--7-7--7-7--7-7--7-7-7-7------3~----------------3~-------------|
d -------------------------------------------------------------------|

e -------------------------------------------------------------------|
b -7-7--7-7--8-8--8-8--8-8-8-8------3~----------------3~-------------|
g -0-0--0-0--0-0--0-0--0-0-0-0------0~----------------0~-------------|
d -x-x--x-x--x-x--x-x--x-x-x-x------x-----------------x--------------|
a -7-7--7-7--7-7--7-7--7-7-7-7------3~----------------3~-------------|
d -------------------------------------------------------------------|

e -------------------------------------------------------------------|
b -7-7--7-7--8-8--8-8--8-8-8-8------3~----------------3~-------------|
g -0-0--0-0--0-0--0-0--0-0-0-0------0~----------------0~-------------|
d -x-x--x-x--x-x--x-x--x-x-x-x------x-----------------x--------------|
a -7-7--7-7--7-7--7-7--7-7-7-7------3~----------------3~-------------|
d -------------------------------------------------------------------|

e -------------------------------------------------------------------|
b -7-7--7-7--8-8--8-8--8-8-8-8------3~----------------3~-------------|
g -0-0--0-0--0-0--0-0--0-0-0-0------0~----------------0~-------------|
d -x-x--x-x--x-x--x-x--x-x-x-x------x-----------------4~-------------|
a -7-7--7-7--7-7--7-7--7-7-7-7------3~----------------5~-------------|
d -------------------------------------------------------------------|

Verse

e -------------------------------------------------------------------|
b ---------0----------------0---------------0----------------0-------|
g -----7-----7---7------7----7---7------7-----7---7------7-----7---7-|
d ---5---5-----5------5---5----5------5---5-----5------4---4-----4---|
a -7----------------7---------------3----------------5---------------|
d -------------------------------------------------------------------|

e -------------------------------------------------------------------|
b ---------0----------------0---------------0----------------0-------|
g -----7-----7---7------7----7---7------7-----7---7------7-----7---7-|
d ---5---5-----5------5---5----5------5---5-----5------4---4-----4---|
a -7----------------7---------------3----------------5---------------|
d -------------------------------------------------------------------|

e -------------------------------------------------------------------|
b ---------0----------------0---------------0----------------0-------|
g -----7-----7---7------7----7---7------7-----7---7------7-----7---7-|
d ---5---5-----5------5---5----5------5---5-----5------4---4-----4---|
a -7----------------7---------------3----------------5---------------|
d -------------------------------------------------------------------|

e -------------------------------------------------------------------|
b ---------0----------------0---------------0--------0~--------------|
g -----7-----7---7------7----7---7------7-----7---7--7~--------------|
d ---5---5-----5------5---5----5------5---5-----5----4~--------------|
a -7----------------7---------------3----------------5~--------------|
d -------------------------------------------------------------------|

Chorus

e -------------------------------------------------------------------|
b -7-7--7-7--8-8--8-8--8-8-8-8------3~----------------3~-------------|
g -0-0--0-0--0-0--0-0--0-0-0-0------0~----------------0~-------------|
d -x-x--x-x--x-x--x-x--x-x-x-x------x-----------------x--------------|
a -7-7--7-7--7-7--7-7--7-7-7-7------3~----------------3~-------------|
d -------------------------------------------------------------------|

e -------------------------------------------------------------------|
b -7-7--7-7--8-8--8-8--8-8-8-8------3~----------------3~-------------|
g -0-0--0-0--0-0--0-0--0-0-0-0------0~----------------0~-------------|
d -x-x--x-x--x-x--x-x--x-x-x-x------x-----------------x--------------|
a -7-7--7-7--7-7--7-7--7-7-7-7------3~----------------3~-------------|
d -------------------------------------------------------------------|

e -------------------------------------------------------------------|
b -7-7--7-7--8-8--8-8--8-8-8-8------3~----------------3~-------------|
g -0-0--0-0--0-0--0-0--0-0-0-0------0~----------------0~-------------|
d -x-x--x-x--x-x--x-x--x-x-x-x------x-----------------x--------------|
a -7-7--7-7--7-7--7-7--7-7-7-7------3~----------------3~-------------|
d -------------------------------------------------------------------|

e -------------------------------------------------------------------|
b -7-7--7-7--8-8--8-8--8-8-8-8------3~----------------3~-------------|
g -0-0--0-0--0-0--0-0--0-0-0-0------0~----------------0~-------------|
d -x-x--x-x--x-x--x-x--x-x-x-x------x-----------------4~-------------|
a -7-7--7-7--7-7--7-7--7-7-7-7------3~----------------5~-------------|
d -------------------------------------------------------------------|

Bridge

e -------------------------------------------------------------------|
b -------------------------------------------------------------------|
g -7-7-7-7--7-7-7--7-7-7-7-7-7-7--7-7-7-7--7-7-7---------------------|
d -5-5-5-5--5-5-5--5-5-5-5-4-4-4--5-5-5-5--5-5-5--4-4-4-4-5-5-5------|
a -7-7-7-7--7-7-7--7-7-7-7-5-5-5--3-3-3-3--3-3-3--2-2-2-2/3-3-3------|
d -------------------------------------------------------------------|

e -------------------------------------------------------------------|
b -------------------------------------------------------------------|
g -7-7-7-7--7-7-7--7-7-7-7-7-7-7--7-7-7-7--7-7-7---------------------|
d -5-5-5-5--5-5-5--5-5-5-5-4-4-4--5-5-5-5--5-5-5--4-4-4-4-5-5-5------|
a -7-7-7-7--7-7-7--7-7-7-7-5-5-5--3-3-3-3--3-3-3--2-2-2-2/3-3-3------|
d -------------------------------------------------------------------|

e -------------------------------------------------------------------|
b -------------------------------------------------------------------|
g -7-7-7-7--7-7-7--7-7-7-7-7-7-7--7-7-7-7--7-7-7---------------------|
d -5-5-5-5--5-5-5--5-5-5-5-4-4-4--5-5-5-5--5-5-5--4-4-4-4-5-5-5------|
a -7-7-7-7--7-7-7--7-7-7-7-5-5-5--3-3-3-3--3-3-3--2-2-2-2/3-3-3------|
d -------------------------------------------------------------------|

e -------------------------------------------------------------------|
b -------------------------------------------------------------------|
g -7-7-7-7--7-7-7--7-7-7-7-7-7-7--7-7-7-7--7-7-7---------------------|
d -5-5-5-5--5-5-5--5-5-5-5-4-4-4--5-5-5-5--5-5-5--4-4-4-4-5-5-5------|
a -7-7-7-7--7-7-7--7-7-7-7-5-5-5--3-3-3-3--3-3-3--2-2-2-2/3-3-3------|
d -------------------------------------------------------------------|

e --------------------------------------------------10-10---------------|
b -8-8-7-7--------------------------8-8-7-7-------------------10-10-----|
g ---------7-7-----7-7-----9-9-7-7----------7-7---------------------7-7-|
d -------------9-9-----9-9----------------------9-9-------9-9-----------|
a ----------------------------------------------------------------------|
d ----------------------------------------------------------------------|
   . . . . . . . . . . . . . . . .  . . . . . . . .  . .  . .  . .  . .

e --------------------------------------------------10-10---------------|
b -8-8-7-7--------------------------8-8-7-7-------------------10-10-----|
g ---------7-7-----7-7-----9-9-7-7----------7-7---------------------7-7-|
d -------------9-9-----9-9----------------------9-9-------9-9-----------|
a ----------------------------------------------------------------------|
d ----------------------------------------------------------------------|
   . . . . . . . . . . . . . . . .  . . . . . . . .

Chorus

e -------------------------------------------------------------------|
b -7-7--7-7--8-8--8-8--8-8-8-8------3~----------------3~-------------|
g -0-0--0-0--0-0--0-0--0-0-0-0------0~----------------0~-------------|
d -x-x--x-x--x-x--x-x--x-x-x-x------x-----------------x--------------|
a -7-7--7-7--7-7--7-7--7-7-7-7------3~----------------3~-------------|
d -------------------------------------------------------------------|

e -------------------------------------------------------------------|
b -7-7--7-7--8-8--8-8--8-8-8-8------3~----------------3~-------------|
g -0-0--0-0--0-0--0-0--0-0-0-0------0~----------------0~-------------|
d -x-x--x-x--x-x--x-x--x-x-x-x------x-----------------x--------------|
a -7-7--7-7--7-7--7-7--7-7-7-7------3~----------------3~-------------|
d -------------------------------------------------------------------|

e -------------------------------------------------------------------|
b -7-7--7-7--8-8--8-8--8-8-8-8------3~----------------3~-------------|
g -0-0--0-0--0-0--0-0--0-0-0-0------0~----------------0~-------------|
d -x-x--x-x--x-x--x-x--x-x-x-x------x-----------------x--------------|
a -7-7--7-7--7-7--7-7--7-7-7-7------3~----------------3~-------------|
d -------------------------------------------------------------------|

e -------------------------------------------------------------------|
b -7-7--7-7--8-8--8-8--8-8-8-8------3~----------------3~-------------|
g -0-0--0-0--0-0--0-0--0-0-0-0------0~----------------0~-------------|
d -x-x--x-x--x-x--x-x--x-x-x-x------x-----------------4~-------------|
a -7-7--7-7--7-7--7-7--7-7-7-7------3~----------------5~-------------|
d -------------------------------------------------------------------|

Outro (tremolo picking)

e -7-7-7-7-7-7-7-7-8-8-8-8-8-8-8-8-10-10-10-10-10-10-10-10-8-8-8-8---|
b -------------------------------------------------------------------|
g -------------------------------------------------------------------|
d -------------------------------------------------------------------|
a -------------------------------------------------------------------|
d -------------------------------------------------------------------|

e -12-12-12-12-14-14-14-14-14-14-14-14-15-15-15-15-15-15-15-15-------|
b -------------------------------------------------------------------|
g -------------------------------------------------------------------|
d -------------------------------------------------------------------|
a -------------------------------------------------------------------|
d -------------------------------------------------------------------|

e -19-19-19-19-19-19-19-19-17-17-17-17-15-15-14-14-------------------|
b -------------------------------------------------------------------|
g -------------------------------------------------------------------|
d -------------------------------------------------------------------|
a -------------------------------------------------------------------|
d -------------------------------------------------------------------|

e -7-7-7-7-7-7-7-7-8-8-8-8-8-8-8-8-10-10-10-10-10-10-10-10-12-12-12-12-|
b ---------------------------------------------------------------------|
g ---------------------------------------------------------------------|
d ---------------------------------------------------------------------|
a ---------------------------------------------------------------------|
d ---------------------------------------------------------------------|

e -14-14-14-14-15-15-15-15-15-15-15-15-15-15-15-15-14-14-14-14-------|
b -------------------------------------------------------------------|
g -------------------------------------------------------------------|
d -------------------------------------------------------------------|
a -------------------------------------------------------------------|
d -------------------------------------------------------------------|

e -19-19-19-19-17-17-17-17-15-15-15-15-14-14-14-14-------------------|
b -------------------------------------------------------------------|
g -------------------------------------------------------------------|
d -------------------------------------------------------------------|
a -------------------------------------------------------------------|
d -------------------------------------------------------------------|

End on

e -12/---------------|
b -------------------|
g -------------------|
d -------------------|
a -------------------|
d -------------------|


*Guitar 2* (samnyberg)


Intro

e -------------------------------------------------------------------|
b -------------------------------------------------------------------|
g -------------------------------------------------------------------|
d -------------------------------------------------------------------|
a -------------------------------------------------------------------|
d -------------------------------------------------------------------|

e -------------------------------------------------------------------|
b -------------------------------------------------------------------|
g -------------------------------------------------------------------|
d -------------------------------------------------------------------|
a -------------------------------------------------------------------|
d -------------------------------------------------------------------|

Verse

e --------------------------------10---------------------------------|
b -8p7----8p7---10p7---8p7----8p7------------------------------------|
g -----7------7------7-----7-----------------------------------------|
d -------------------------------------------------------------------|
a -------------------------------------------------------------------|
d -------------------------------------------------------------------|

e -------------------------------------------------------------------|
b -8p7----8p7---10p7---8p7----8p7------------------------------------|
g -----7------7------7-----7------9----------------------------------|
d -------------------------------------------------------------------|
a -------------------------------------------------------------------|
d -------------------------------------------------------------------|

e --------------------------------10---------------------------------|
b -8p7----8p7---10p7---8p7----8p7------------------------------------|
g -----7------7------7-----7-----------------------------------------|
d -------------------------------------------------------------------|
a -------------------------------------------------------------------|
d -------------------------------------------------------------------|

e -------------------------------------------------------------------|
b -8p7----8p7---10p7---8p7----8p7------------------------------------|
g -----7------7------7-----7------9----------------------------------|
d -------------------------------------------------------------------|
a -------------------------------------------------------------------|
d -------------------------------------------------------------------|

*bass tapping part*

g -------------t12p9--------------------t12p9------------------------|
d -------t12p9-------t12p9--------t12p9-------t12p9------------------|
a -t12p7--------------------t12p7------------------------------------|
d -------------------------------------------------------------------|


g -------------t12p5--------------------t12p7------------------------|
d -------t12p5-------t12p5--------t12p7-------t12p7------------------|
a -t12p3--------------------t12p5------------------------------------|
d -------------------------------------------------------------------|

g -------------t12p9--------------------t12p9------------------------|
d -------t12p9-------t12p9--------t12p9-------t12p9------------------|
a -t12p7--------------------t12p7------------------------------------|
d -------------------------------------------------------------------|

g -------------t12p5-------------------------------------------------|
d -------t12p5-------t12p5-------------------------------------------|
a -t12p3--------------------t12~-------------------------------------|
d -------------------------------------------------------------------|

Verse

e --------------------------------10---------------------------------|
b -8p7----8p7---10p7---8p7----8p7------------------------------------|
g -----7------7------7-----7-----------------------------------------|
d -------------------------------------------------------------------|
a -------------------------------------------------------------------|
d -------------------------------------------------------------------|

e -------------------------------------------------------------------|
b -8p7----8p7---10p7---8p7----8p7------------------------------------|
g -----7------7------7-----7------9----------------------------------|
d -------------------------------------------------------------------|
a -------------------------------------------------------------------|
d -------------------------------------------------------------------|

e --------------------------------10---------------------------------|
b -8p7----8p7---10p7---8p7----8p7------------------------------------|
g -----7------7------7-----7-----------------------------------------|
d -------------------------------------------------------------------|
a -------------------------------------------------------------------|
d -------------------------------------------------------------------|

e -------------------------------------------------------------------|
b -8p7----8p7---10p7---8p7----8p7------------------------------------|
g -----7------7------7-----7------9----------------------------------|
d -------------------------------------------------------------------|
a -------------------------------------------------------------------|
d -------------------------------------------------------------------|

Chorus

e -------------------------------------------------------------------|
b -7-7--7-7--8-8--8-8--8-8-8-8------3~----------------3~-------------|
g -0-0--0-0--0-0--0-0--0-0-0-0------0~----------------0~-------------|
d -x-x--x-x--x-x--x-x--x-x-x-x------x-----------------x--------------|
a -7-7--7-7--7-7--7-7--7-7-7-7------3~----------------3~-------------|
d -------------------------------------------------------------------|

e -------------------------------------------------------------------|
b -7-7--7-7--8-8--8-8--8-8-8-8------3~----------------3~-------------|
g -0-0--0-0--0-0--0-0--0-0-0-0------0~----------------0~-------------|
d -x-x--x-x--x-x--x-x--x-x-x-x------x-----------------x--------------|
a -7-7--7-7--7-7--7-7--7-7-7-7------3~----------------3~-------------|
d -------------------------------------------------------------------|

e -------------------------------------------------------------------|
b -7-7--7-7--8-8--8-8--8-8-8-8------3~----------------3~-------------|
g -0-0--0-0--0-0--0-0--0-0-0-0------0~----------------0~-------------|
d -x-x--x-x--x-x--x-x--x-x-x-x------x-----------------x--------------|
a -7-7--7-7--7-7--7-7--7-7-7-7------3~----------------3~-------------|
d -------------------------------------------------------------------|

e -------------------------------------------------------------------|
b -7-7--7-7--8-8--8-8--8-8-8-8------3~----------------3~-------------|
g -0-0--0-0--0-0--0-0--0-0-0-0------0~----------------0~-------------|
d -x-x--x-x--x-x--x-x--x-x-x-x------x-----------------4~-------------|
a -7-7--7-7--7-7--7-7--7-7-7-7------3~----------------5~-------------|
d -------------------------------------------------------------------|

Verse

e --------------------------------10---------------------------------|
b -8p7----8p7---10p7---8p7----8p7------------------------------------|
g -----7------7------7-----7-----------------------------------------|
d -------------------------------------------------------------------|
a -------------------------------------------------------------------|
d -------------------------------------------------------------------|

e -------------------------------------------------------------------|
b -8p7----8p7---10p7---8p7----8p7------------------------------------|
g -----7------7------7-----7------9----------------------------------|
d -------------------------------------------------------------------|
a -------------------------------------------------------------------|
d -------------------------------------------------------------------|

e --------------------------------10---------------------------------|
b -8p7----8p7---10p7---8p7----8p7------------------------------------|
g -----7------7------7-----7-----------------------------------------|
d -------------------------------------------------------------------|
a -------------------------------------------------------------------|
d -------------------------------------------------------------------|

e -------------------------------------------------------------------|
b -8p7----8p7---10p7---8p7----8p7------------------------------------|
g -----7------7------7-----7------9----------------------------------|
d -------------------------------------------------------------------|
a -------------------------------------------------------------------|
d -------------------------------------------------------------------|

Chorus

e -------------------------------------------------------------------|
b -7-7--7-7--8-8--8-8--8-8-8-8------3~----------------3~-------------|
g -0-0--0-0--0-0--0-0--0-0-0-0------0~----------------0~-------------|
d -x-x--x-x--x-x--x-x--x-x-x-x------x-----------------x--------------|
a -7-7--7-7--7-7--7-7--7-7-7-7------3~----------------3~-------------|
d -------------------------------------------------------------------|

e -------------------------------------------------------------------|
b -7-7--7-7--8-8--8-8--8-8-8-8------3~----------------3~-------------|
g -0-0--0-0--0-0--0-0--0-0-0-0------0~----------------0~-------------|
d -x-x--x-x--x-x--x-x--x-x-x-x------x-----------------x--------------|
a -7-7--7-7--7-7--7-7--7-7-7-7------3~----------------3~-------------|
d -------------------------------------------------------------------|

e -------------------------------------------------------------------|
b -7-7--7-7--8-8--8-8--8-8-8-8------3~----------------3~-------------|
g -0-0--0-0--0-0--0-0--0-0-0-0------0~----------------0~-------------|
d -x-x--x-x--x-x--x-x--x-x-x-x------x-----------------x--------------|
a -7-7--7-7--7-7--7-7--7-7-7-7------3~----------------3~-------------|
d -------------------------------------------------------------------|

e -------------------------------------------------------------------|
b -7-7--7-7--8-8--8-8--8-8-8-8------3~----------------3~-------------|
g -0-0--0-0--0-0--0-0--0-0-0-0------0~----------------0~-------------|
d -x-x--x-x--x-x--x-x--x-x-x-x------x-----------------4~-------------|
a -7-7--7-7--7-7--7-7--7-7-7-7------3~----------------5~-------------|
d -------------------------------------------------------------------|

Bridge

e -------------------------------------------------------------------|
b -------------------------------------------------------------------|
g -------------------------------------------------------------------|
d -------------------------------------------------------------------|
a -------------------------------------------------------------------|
d -------------------------------------------------------------------|

e -------------------------------------------------------------------|
b -------------------------------------------------------------------|
g -------------------------------------------------------------------|
d -------------------------------------------------------------------|
a -------------------------------------------------------------------|
d -------------------------------------------------------------------|

e -------------------------------------------------------------------|
b -------------------------------------------------------------------|
g -------------------------------------------------------------------|
d -5-5-5-5--5-5-5--5-5-5-5-4-4-4--5-5-5-5--5-5-5--4-4-4-----5--------|
a -7-7-7-7--7-7-7--7-7-7-7-5-5-5--3-3-3-3--3-3-3--2-2-2-2/3----------|
d -------------------------------------------------------------------|   . . . .  . . .  
. . . . .  . . . .  . . .  . . .

e -------------------------------------------------------------------|
b -------------------------------------------------------------------|
g -------------------------------------------------------------------|
d -5-5-5-5--5-5-5--5-5-5-5-4-4-4--5-5-5-5--5-5-5--4-4-4-----5--------|
a -7-7-7-7--7-7-7--7-7-7-7-5-5-5--3-3-3-3--3-3-3--2-2-2-2/3----------|
d -------------------------------------------------------------------|   . . . .  . . .  
. . . . .  . . . .  . . .  . . .


e -------------------------------------------------------------------|
b -------------------------------------------------------------------|
g -------------------------------------------------------------------|
d -5-5-5-5--5-5-5--5-5-5-5-4-4-4--5-5-5-5--5-5-5--4-4-4-----5--------|
a -7-7-7-7--7-7-7--7-7-7-7-5-5-5--3-3-3-3--3-3-3--2-2-2-2/3----------|
d -------------------------------------------------------------------|   . . . .  . . .  
. . . . .  . . . .  . . .  . . .


e -------------------------------------------------------------------|
b -------------------------------------------------------------------|
g -------------------------------------------------------------------|
d -5-5-5-5--5-5-5--5-5-5-5-4-4-4--5-5-5-5--5-5-5--4-4-4-----5--------|
a -7-7-7-7--7-7-7--7-7-7-7-5-5-5--3-3-3-3--3-3-3--2-2-2-2/3----------|
d -------------------------------------------------------------------|   . . . .  . . .  
. . . . .  . . . .  . . .  . . .

Chorus

e -------------------------------------------------------------------|
b -7-7--7-7--8-8--8-8--8-8-8-8------3~----------------3~-------------|
g -0-0--0-0--0-0--0-0--0-0-0-0------0~----------------0~-------------|
d -x-x--x-x--x-x--x-x--x-x-x-x------x-----------------x--------------|
a -7-7--7-7--7-7--7-7--7-7-7-7------3~----------------3~-------------|
d -------------------------------------------------------------------|

e -------------------------------------------------------------------|
b -7-7--7-7--8-8--8-8--8-8-8-8------3~----------------3~-------------|
g -0-0--0-0--0-0--0-0--0-0-0-0------0~----------------0~-------------|
d -x-x--x-x--x-x--x-x--x-x-x-x------x-----------------x--------------|
a -7-7--7-7--7-7--7-7--7-7-7-7------3~----------------3~-------------|
d -------------------------------------------------------------------|

e -------------------------------------------------------------------|
b -7-7--7-7--8-8--8-8--8-8-8-8------3~----------------3~-------------|
g -0-0--0-0--0-0--0-0--0-0-0-0------0~----------------0~-------------|
d -x-x--x-x--x-x--x-x--x-x-x-x------x-----------------x--------------|
a -7-7--7-7--7-7--7-7--7-7-7-7------3~----------------3~-------------|
d -------------------------------------------------------------------|

e -------------------------------------------------------------------|
b -7-7--7-7--8-8--8-8--8-8-8-8------3~----------------3~-------------|
g -0-0--0-0--0-0--0-0--0-0-0-0------0~----------------0~-------------|
d -x-x--x-x--x-x--x-x--x-x-x-x------x-----------------4~-------------|
a -7-7--7-7--7-7--7-7--7-7-7-7------3~----------------5~-------------|
d -------------------------------------------------------------------|

Outro

e ---------------------------------------------------------------------|
b ---------------------------------------------------------------------|
g -7777777777777777-7777777777777777-7777777777777777-7777777777777777-|
d -5555555555555555-4444444444444444-5555555555555555-4444444444444444-|
a -7777777777777777-5555555555555555-3333333333333333-5555555555555555-|
d ---------------------------------------------------------------------|

e ---------------------------------------------------------------------|
b ---------------------------------------------------------------------|
g -7777777777777777-7777777777777777-7777777777777777-7777777777777777-|
d -5555555555555555-4444444444444444-5555555555555555-4444444444444444-|
a -7777777777777777-5555555555555555-3333333333333333-5555555555555555-|
d ---------------------------------------------------------------------|

End on

e -----------------|
b -----------------|
g -7~--------------|
d -5~--------------|
a -7~--------------|
d -----------------|
Tap to rate this tab
# A B C D E F G H I J K L M N O P Q R S T U V W X Y Z