Guitaretab - guitar tabs
Song name
# A B C D E F G H I J K L M N O P Q R S T U V W X Y Z

Misc Unsigned Bands - An Awkward Symphony - Psychological Breakdown tab

This is the official lead guitar part to Psychological Breakdown.
Very fun, and easy when you get the hang of it.

e|------------------------------------------------------------|
b|------------------------------------------------------------|
g|------------------------------------------------------------|
d|------------------------------------------------------------|
a|6---------6----5----3---5---------6----5----3---5-----------|
d|6-0000000-6-00-5-00-3-0-5-0000000-6-00-5-00-3-0-5-0000000---|

e|------------------------------------------------------------|
b|------------------------------------------------------------|
g|------------------------------------------------------------|
d|5-0000000-5-00-6-00-5-0-6-0000000---------------------------|X2
a|------------------------------------------------------------|
d|------------------------------------------------------------|

e|-----------------------|--|---------------------------------|
b|-----------------------|--|---------------------------------|
g|-----------------------|--|---------------------------------|
d|-----------------------|X2|---------------------------------|
a|5----6----5---6--------|--|6--5--4--0-----------------------|
d|5-00-6-00-5-0-6-0000000|--|6--5--4--0-----------------------|

e|------------------------------------------------------------|
b|------------------------------------------------------------|
g|------------------------------------------------------------|
d|320-320-320-320--2/3\2--------------------------------------|
a|-----------------------0--3--2-0----------------------------|
d|------------------------------------------------------------|

e|------------------------------------------------------------|
b|------------------------------------------------------------|
g|------------------------------------------------------------|
d|------------------------------------------------------------|X2
a|---------3--------5--------3--------1-----------------------|
d|00000000-3-000000-5-000000-3-000000-1-----------------------|

e|------------------------------------------------------------|
b|------------------------------------------------------------|
g|------------------------------------------------------------|
d|------------------------------------------------------------|
a|---5-----6-----5-----6-----5-----650-5-5-3--3-2-0-----------|
d|00-5-000-6-000-5-000-6-000-5-000-650---5-3------------------|
[ Tab from: http://www.guitaretab.com/m/misc-unsigned-bands/93690.html ]
(Verse 1)
e|----------------------|--|----------------------------------|
b|----------------------|--|----------------------------------|
g|----------------------|--|----------------------------------|
d|----------------------|X4|----------------------------------|
a|---7-----6-----5-----3|--|xx-x-x-x-x-x-xx-xx----------------|
d|00-7-000-6-000-5-000-3|--|77-8-5-7-3-5-22-32----------------|

e|-------------------------------------|----------------------------|
b|-------------------------------------|----------------------------|
g|-------------------------------------|----------------------------|
d|-------------------------------------|----------------------------|
a|77-8-5-7-3-5-22-32------2-3-6-5-3-0-2|----------------------------|
d|77-8-5-7-3-5-22-32---00-2-3-6-5-3-0-2|00-2-0-3-0-6-0-5-0-3-0-2-3-2|

(Between Verse And Chorus)
e|------------------------------------------------------------|
b|------------------------------------------------------------|
g|------------------------------------------------------------|
d|------------------------------------------------------------|
a|320-320-320-320-2/3\2---------------------------------------|
d|---------------------0-3-2-0--------------------------------|

(Chorus)
e|------------------------------------------------------------|
b|------------------------------------------------------------|
g|------------------------------------------------------------|
d|------------------------------------------------------------|X2
a|7-000000-6-000000-5-000000-5-3-0-5-3-0----------------------|
d|7-000000-6-000000-5-000000-5-3-0-5-3-0----------------------|

e|------------------------------------------------------------|
b|------------------------------------------------------------|
g|------------------------------------------------------------|
d|------------------------------------------------------------|
a|6---------6----5----3---5---------6----5----3---5-----------|
d|6-0000000-6-00-5-00-3-0-5-0000000-6-00-5-00-3-0-5-0000000---|

(Verse 2)
e|----------------|----------------------------|--|----------------|
b|----------------|----------------------------|--|----------------|
g|----------------|----------------------------|--|----------------|
d|----------------|----------------------------|X2|----------------|
a|----------------|----------------------------|--|----------------|
d|00-2-3-6-5-3-0-2|00-2-0-3-0-6-0-5-0-3-0-2-3-2|--|00-2-3-6-5-3-0-2|


This is just the lead part.
I will have the bass and second guitar part up soon.
Related for An Awkward Symphony - Psychological Breakdown tab
Advertisement will be closed in 10 seconds