Guitaretab - guitar tabs
Song name
# A B C D E F G H I J K L M N O P Q R S T U V W X Y Z

Misc Unsigned Bands - September Solstice - Stars tab

September Solstice
STARS

*Guitar 1* (patsena)

Intro

e -------------------------------------------------|
b -13-13-13-13-13-13-13-13-13-13-13-13-10-10-10-10-|
g -10-10-10-10-10-10-10-10-10-10-10-10-10-10-10-10-|
d -0--0--0--0--0--0--0--0--0--0--0--0--0--0--0--0--|
a -------------------------------------------------|
d -------------------------------------------------|

e -------------------------------------------------|
b -8--8--8--8--8--8--8--8--8--8--8--8--10-10-10-10-|
g -10-10-10-10-10-10-10-10-10-10-10-10-10-10-10-10-|
d -0--0--0--0--0--0--0--0--0--0--0--0--0--0--0--0--|
a -------------------------------------------------|
d -------------------------------------------------|

e -------------------------------------------------|
b -13-13-13-13-13-13-13-13-13-13-13-13-10-10-10-10-|
g -10-10-10-10-10-10-10-10-10-10-10-10-10-10-10-10-|
d -0--0--0--0--0--0--0--0--0--0--0--0--0--0--0--0--|
a -------------------------------------------------|
d -------------------------------------------------|

e -------------------------------------------------|
b -8--8--8--8--8--8--8--8--8--8--8--8--10-10-10-10-|
g -10-10-10-10-10-10-10-10-10-10-10-10-10-10-10-10-|
d -0--0--0--0--0--0--0--0--0--0--0--0--0--0--0--0--|
a -------------------------------------------------|
d -------------------------------------------------|

Chorus

e ---------------------------------------------------------------------|
b ---------------------------------------------------------------------|
g ---------------------------------------------------------------------|
d -8888888888888888-0000000000000000-8888888888888888-1010101010101010-|
a -8888888888888888-0000000000000000-8888888888888888-1010101010101010-|
d -8888888888888888-0000000000000000-8888888888888888-1010101010101010-|

e -----------------|
b -----------------|
g 10--10-10/12-12--|
d -x--x--x--x--x---|
a -8--8--8/10-10---|
d -----------------|


e ---------------------------------------------------------------------|
b ---------------------------------------------------------------------|
g ---------------------------------------------------------------------|
d -8888888888888888-0000000000000000-8888888888888888-1010101010101010-|
a -8888888888888888-0000000000000000-8888888888888888-1010101010101010-|
d -8888888888888888-0000000000000000-8888888888888888-1010101010101010-|

e -----------------|
b -----------------|
g 10--10-10/12-12--|
d -x--x--x--x--x---|
a -8--8--8/10-10---|
d -----------------|


Verse

e -----------------------------------------------|
b -------------8-------------8-------8-----------|
g ----10----10---10----10------10------10----10--|
d -10----10---------10----10------10------10-----|
a -----------------------------------------------|
d -----------------------------------------------|

e -----------------------------------------------|
b -------------8-------------8-------10----------|
g ----10----10---10----10------10-------10----10-|
d -10----10---------10----10------10-------10----|
a -----------------------------------------------|
d -----------------------------------------------|

e -----------------------------------------------|
b -------------8-------------8-------8-----------|
g ----10----10---10----10------10------10----10--|
d -10----10---------10----10------10------10-----|
a -----------------------------------------------|
d -----------------------------------------------|

e -----------------------------------------------|
b -------------8-------------8-------10----------|
g ----10----10---10----10------10-------10----10-|
d -10----10---------10----10------10-------10----|
a -----------------------------------------------|
d -----------------------------------------------|

e -----------------------------------------------|
b -------------8-------------8-------8-----------|
g ----10----10---10----10------10------10----10--|
d -10----10---------10----10------10------10-----|
a -----------------------------------------------|
d -----------------------------------------------|

e -----------------------------------------------|
b -------------8-------------8-------10----------|
g ----10----10---10----10------10-------10----10-|
d -10----10---------10----10------10-------10----|
a -----------------------------------------------|
d -----------------------------------------------|

e -----------------------------------------------|
b -------------8-------------8-------8-----------|
g ----10----10---10----10------10------10----10--|
d -10----10---------10----10------10------10-----|
a -----------------------------------------------|
d -----------------------------------------------|

e -----------------------------------------------|
b -------------8-------------8-------10----------|
g ----10----10---10----10------10-------10----10-|
d -10----10---------10----10------10-------10----|
a -----------------------------------------------|
d -----------------------------------------------|

e -----------------------------------------------|
b -8~--------------------------------------------|
g ---10~-----------------------------------------|
d ------10~--------------------------------------|
a -----------------------------------------------|
d -----------------------------------------------|

e -----------------------------------0-----------|
b -------8----8-----------------8------8----8----|
g ----10---10---10----10-----10---10-----10------|
d -10--------------10-----10---------------------|
a -----------------------------------------------|
d -----------------------------------------------|

Chorus

e ---------------------------------------------------------------------|
b ---------------------------------------------------------------------|
g ---------------------------------------------------------------------|
d -8888888888888888-0000000000000000-8888888888888888-1010101010101010-|
a -8888888888888888-0000000000000000-8888888888888888-1010101010101010-|
d -8888888888888888-0000000000000000-8888888888888888-1010101010101010-|

e -----------------|
b -----------------|
g 10--10-10/12-12--|
d -x--x--x--x--x---|
a -8--8--8/10-10---|
d -----------------|


e ---------------------------------------------------------------------|
b ---------------------------------------------------------------------|
g ---------------------------------------------------------------------|
d -8888888888888888-0000000000000000-8888888888888888-1010101010101010-|
a -8888888888888888-0000000000000000-8888888888888888-1010101010101010-|
d -8888888888888888-0000000000000000-8888888888888888-1010101010101010-|

e -----------------|
b -----------------|
g 10--10-10/12-12--|
d -x--x--x--x--x---|
a -8--8--8/10-10---|
d -----------------|

Verse

e -----------------------------------------------|
b -------------8-------------8-------8-----------|
g ----10----10---10----10------10------10----10--|
d -10----10---------10----10------10------10-----|
a -----------------------------------------------|
d -----------------------------------------------|

e -----------------------------------------------|
b -------------8-------------8-------10----------|
g ----10----10---10----10------10-------10----10-|
d -10----10---------10----10------10-------10----|
a -----------------------------------------------|
d -----------------------------------------------|

e -----------------------------------------------|
b -------------8-------------8-------8-----------|
g ----10----10---10----10------10------10----10--|
d -10----10---------10----10------10------10-----|
a -----------------------------------------------|
d -----------------------------------------------|

e -----------------------------------------------|
b -------------8-------------8-------10----------|
g ----10----10---10----10------10-------10----10-|
d -10----10---------10----10------10-------10----|
a -----------------------------------------------|
d -----------------------------------------------|

e -----------------------------------------------|
b -------------8-------------8-------8-----------|
g ----10----10---10----10------10------10----10--|
d -10----10---------10----10------10------10-----|
a -----------------------------------------------|
d -----------------------------------------------|

e -----------------------------------------------|
b -------------8-------------8-------10----------|
g ----10----10---10----10------10-------10----10-|
d -10----10---------10----10------10-------10----|
a -----------------------------------------------|
d -----------------------------------------------|

e -----------------------------------------------|
b -------------8-------------8-------8-----------|
g ----10----10---10----10------10------10----10--|
d -10----10---------10----10------10------10-----|
a -----------------------------------------------|
d -----------------------------------------------|

e -----------------------------------------------|
b -------------8-------------8-------10----------|
g ----10----10---10----10------10-------10----10-|
d -10----10---------10----10------10-------10----|
a -----------------------------------------------|
d -----------------------------------------------|

e -----------------------------------------------|
b -------------8-------------8-------8-----------|
g ----10----10---10----10------10------10----10--|
d -10----10---------10----10------10------10-----|
a -----------------------------------------------|
d -----------------------------------------------|

e -----------------------------------------------|
b -------------8-------------8-------10----------|
g ----10----10---10----10------10-------10----10-|
d -10----10---------10----10------10-------10----|
a -----------------------------------------------|
d -----------------------------------------------|

e -----------------------------------------------|
b -------------8-------------8-------8-----------|
g ----10----10---10----10------10------10----10--|
d -10----10---------10----10------10------10-----|
a -----------------------------------------------|
d -----------------------------------------------|

e -----------------------------------------------|
b -------------8-------------8-------10----------|
g ----10----10---10----10------10-------10----10-|
d -10----10---------10----10------10-------10----|
a -----------------------------------------------|
d -----------------------------------------------|

e -----------------------------------------------|
b -------------8-------------8-------8-----------|
g ----10----10---10----10------10------10----10--|
d -10----10---------10----10------10------10-----|
a -----------------------------------------------|
d -----------------------------------------------|

e -----------------------------------------------|
b -------------8-------------8-------10----------|
g ----10----10---10----10------10-------10----10-|
d -10----10---------10----10------10-------10----|
a -----------------------------------------------|
d -----------------------------------------------|

e -----------------------------------------------|
b -------------8-------------8-------8-----------|
g ----10----10---10----10------10------10----10--|
d -10----10---------10----10------10------10-----|
a -----------------------------------------------|
d -----------------------------------------------|

e -----------------------------------------------|
b -------------8-------------8-------10----------|
g ----10----10---10----10------10-------10----10-|
d -10----10---------10----10------10-------10----|
a -----------------------------------------------|
d -----------------------------------------------|

(Solo Part)

e ---------------------------------------------|
b ---------------------------------------------|
g -10-10-10-10-10/9-9-9-9-14-14-14-14/12-12-12-|
d --x--x--x--x--x-x-x-x-x-x-x-x--x--x--x--x--x-|
a --8--8--8--8--8/7-7-7-7-12-12-12-12/10-10-10-|
d ---------------------------------------------|

e ---------------------------------------------|
b ---------------------------------------------|
g -17-17-17-17/19-19-19-14-14-14-14/17-17-17---|
d --x--x--x--x--x--x--x--x--x--x--x--x--x--x---|
a -15-15-15-15/17-17-17-12-12-12-12/15-15-15---|
d ---------------------------------------------|

e -12-------13------12-------13-------15----13----|
b ----13-------13------13-------13-------13----13-|
g -------10-------10------10-------10-------------|
d ------------------------------------------------|
a ------------------------------------------------|
d ------------------------------------------------|

e -12-------13------12-------13-------15----13----|
b ----13-------13------13-------13-------13----13-|
g -------10-------10------10-------10-------------|
d ------------------------------------------------|
a ------------------------------------------------|
d ------------------------------------------------|


Bridge

e --8~-------------------8~------------------3~-----------------3--~
b --8~-------------------8~------------------6~-----------------6--~
g -10~------------------10~------------------5~-----------------5--~
d -10~------------------10~------------------3~-----------------5--~
a --8~-------------------0~------------------3~-----------------3--~
d --8~-------------------0~------------------3~--------------------~

e -------------------8-----------------------------------0---3--3~-|
b -----------8---------8---------8------10-8--------6------6----6~-|
g ------10------10-----------10-----10-----------5----5---------5~-|
d ---10----10------10-----10----10-----10------3---3---3--------5~-|
a --------------------------------------------------------------3~-|
d -8---------------------0-------------------3---------------------|

e ----------------------------------------------------------------|
b ----------------------------------------------------------------|
g ---------------------------10/9-9-------------------5-5-5-7-7-7-|
d -8-8-8-x-x-8-8-8--0-0-0-x-x-x-x-x--3-3-3-x-x-3-3-3--x-x-x-x-x-x-|
a -8-8-8-x-x-8-8-8--0-0-0-x-x-8/7-7--3-3-3-x-x-3-3-3--3-3-3-5-5-5-|
d -8-8-8-x-x-8-8-8--0-0-0-x-x--------3-3-3-x-x-3-3-3--------------|

e ----------------------------------------------------------------|
b ----------------------------------------------------------------|
g ---------------------------10/9-9-------------------5-5-5-7-7-7-|
d -8-8-8-x-x-8-8-8--0-0-0-x-x-x-x-x--3-3-3-x-x-3-3-3--x-x-x-x-x-x-|
a -8-8-8-x-x-8-8-8--0-0-0-x-x-8/7-7--3-3-3-x-x-3-3-3--3-3-3-5-5-5-|
d -8-8-8-x-x-8-8-8--0-0-0-x-x--------3-3-3-x-x-3-3-3--------------|

e ----------------------------------------------------------------|
b ----------------------------------------------------------------|
g ---------------------------10/9-9-------------------5-5-5-7-7-7-|
d -8-8-8-x-x-8-8-8--0-0-0-x-x-x-x-x--3-3-3-x-x-3-3-3--x-x-x-x-x-x-|
a -8-8-8-x-x-8-8-8--0-0-0-x-x-8/7-7--3-3-3-x-x-3-3-3--3-3-3-5-5-5-|
d -8-8-8-x-x-8-8-8--0-0-0-x-x--------3-3-3-x-x-3-3-3--------------|

e ----------------------------------------------------------------|
b ----------------------------------------------------------------|
g ---------------------------10/9-9-------------------5-5-5-7-7-7-|
d -8-8-8-x-x-8-8-8--0-0-0-x-x-x-x-x--3-3-3-x-x-3-3-3--x-x-x-x-x-x-|
a -8-8-8-x-x-8-8-8--0-0-0-x-x-8/7-7--3-3-3-x-x-3-3-3--3-3-3-5-5-5-|
d -8-8-8-x-x-8-8-8--0-0-0-x-x--------3-3-3-x-x-3-3-3--------------|

e ---------------------------------------------------------------------|
b ---------------------------------------------------------------------|
g -171717171717171717171717-14141414-121212121212121212121212-14141414-|
d --x-x-x-x-x-x-x-x-x-x-x-x--x-x-x-x--x-x-x-x-x-x-x-x-x-x-x-x--x-x-x-x-|
a -151515151515151515151515-12121212-101010101010101010101010-12121212-|
d ---------------------------------------------------------------------|
[ Tab from: http://www.guitaretab.com/m/misc-unsigned-bands/93692.html ]
e ----------------------------------------------------------------------|
b ----------------------------------------------------------------------|
g -171717171717171717/19191919\141414-121212121212121212121212-14141414-|
d --x-x-x-x-x-x-x-x-x--x-x-x-x--x-x-x--x-x-x-x-x-x-x-x-x-x-x-x--x-x-x-x-|
a -151515151515151515/17171717\121212-101010101010101010101010-12121212-|
d ----------------------------------------------------------------------|

e ---------------------------------------------------------------------|
b ---------------------------------------------------------------------|
g -171717171717171717171717-14141414-121212121212121212121212-14141414-|
d --x-x-x-x-x-x-x-x-x-x-x-x--x-x-x-x--x-x-x-x-x-x-x-x-x-x-x-x--x-x-x-x-|
a -151515151515151515151515-12121212-101010101010101010101010-12121212-|
d ---------------------------------------------------------------------|

e ----------------------------------------------------------------------|
b ----------------------------------------------------------------------|
g -171717171717171717/19191919\141414-121212121212121212121212-14141414-|
d --x-x-x-x-x-x-x-x-x--x-x-x-x--x-x-x--x-x-x-x-x-x-x-x-x-x-x-x--x-x-x-x-|
a -151515151515151515/17171717\121212-101010101010101010101010-12121212-|
d ----------------------------------------------------------------------|

Chorus

e ---------------------------------------------------------------------|
b ---------------------------------------------------------------------|
g ---------------------------------------------------------------------|
d -8888888888888888-0000000000000000-8888888888888888-1010101010101010-|
a -8888888888888888-0000000000000000-8888888888888888-1010101010101010-|
d -8888888888888888-0000000000000000-8888888888888888-1010101010101010-|

e -----------------|
b -----------------|
g 10--10-10/12-12--|
d -x--x--x--x--x---|
a -8--8--8/10-10---|
d -----------------|


e ---------------------------------------------------------------------|
b ---------------------------------------------------------------------|
g ---------------------------------------------------------------------|
d -8888888888888888-0000000000000000-8888888888888888-1010101010101010-|
a -8888888888888888-0000000000000000-8888888888888888-1010101010101010-|
d -8888888888888888-0000000000000000-8888888888888888-1010101010101010-|

e -----------------|
b -----------------|
g 10--10-10/12-12--|
d -x--x--x--x--x---|
a -8--8--8/10-10---|
d -----------------|

End on

e -8~--------------|
b -8~--------------|
g -10~-------------|
d -10~-------------|
a -8~--------------|
d -8~--------------|

*Guitar 2* (samnyberg)

Intro

e -------------------------------------------------------------|
b -------------------------------------------------------------|
g -------------------------------------------------------------|
d -------------------------------------------------------------|
a--------------------------------------------------------------|
d -------------------------------------------------------------|

e -------------------------------------------------------------|
b -------------------------------------------------------------|
g -------------------------------------------------------------|
d -------------------------------------------------------------|
a--------------------------------------------------------------|
d -------------------------------------------------------------|


Chorus

e ---------------------------------------------------------------------|
b ---------------------------------------------------------------------|
g ---------------------------------------------------------------------|
d -8888888888888888-0000000000000000-8888888888888888-1010101010101010-|
a -8888888888888888-0000000000000000-8888888888888888-1010101010101010-|
d -8888888888888888-0000000000000000-8888888888888888-1010101010101010-|

e -----------------|
b -----------------|
g 10--10-10/12-12--|
d -x--x--x--x--x---|
a -8--8--8/10-10---|
d -----------------|


e ---------------------------------------------------------------------|
b ---------------------------------------------------------------------|
g ---------------------------------------------------------------------|
d -8888888888888888-0000000000000000-8888888888888888-1010101010101010-|
a -8888888888888888-0000000000000000-8888888888888888-1010101010101010-|
d -8888888888888888-0000000000000000-8888888888888888-1010101010101010-|

e -----------------|
b -----------------|
g 10--10-10/12-12--|
d -x--x--x--x--x---|
a -8--8--8/10-10---|
d -----------------|


Verse

e -----------------|
b -----------------|
g -----------------|
d -8~--------------|
a -8~--------------|
d -8~--------------|

e -----------------|
b -----------------|
g -----------------|
d -0~--------------|
a -0~--------------|
d -0~--------------|

e -----------------|
b -----------------|
g -----------------|
d -3~--------------|
a -3~--------------|
d -3~--------------|

e -----------------|
b -----------------|
g -----------------|
d -10~-------------|
a -10~-------------|
d -10~-------------|

e -----------------|
b -----------------|
g -----------------|
d -8~--------------|
a -8~--------------|
d -8~--------------|

e -----------------|
b -----------------|
g -----------------|
d -0~--------------|
a -0~--------------|
d -0~--------------|

e -----------------|
b -----------------|
g -----------------|
d -3~--------------|
a -3~--------------|
d -3~--------------|

e -----------------|
b -----------------|
g -----------------|
d -10~-------------|
a -10~-------------|
d -10~-------------|

e -----------------|
b -----------------|
g -----------------|
d -8~--------------|
a -8~--------------|
d -8~--------------|


Chorus

e ---------------------------------------------------------------------|
b ---------------------------------------------------------------------|
g ---------------------------------------------------------------------|
d -8888888888888888-0000000000000000-8888888888888888-1010101010101010-|
a -8888888888888888-0000000000000000-8888888888888888-1010101010101010-|
d -8888888888888888-0000000000000000-8888888888888888-1010101010101010-|

e -----------------|
b -----------------|
g 10--10-10/12-12--|
d -x--x--x--x--x---|
a -8--8--8/10-10---|
d -----------------|

e ---------------------------------------------------------------------|
b ---------------------------------------------------------------------|
g ---------------------------------------------------------------------|
d -8888888888888888-0000000000000000-8888888888888888-1010101010101010-|
a -8888888888888888-0000000000000000-8888888888888888-1010101010101010-|
d -8888888888888888-0000000000000000-8888888888888888-1010101010101010-|

e -----------------|
b -----------------|
g 10--10-10/12-12--|
d -x--x--x--x--x---|
a -8--8--8/10-10---|
d -----------------|

e --------------------------------------------------------|
b --------------------------------------------------------|
g --------------------------------------------------------|
d -8-888-8-8-8-8-8-8-8-8-0-000-0-0-0-0-0-0-0-0------------|
a -8-888-8-8-8-8-8-8-8-8-0-000-0-0-0-0-0-0-0-0------------|
d -8-888-8-8-8-8-8-8-8-8-0-000-0-0-0-0-0-0-0-0------------|
   . ... .   .     .     . ... .   .     .

e ---------------------------------------------------------|
b ---------------------------------------------------------|
g  --------------------------------------------------------|
d -3-333-3-3-3-3-3-3-3-3-10-101010-10-10-10-10-10-10-10-10-|
a -3-333-3-3-3-3-3-3-3-3-10-101010-10-10-10-10-10-10-10-10-|
d -3-333-3-3-3-3-3-3-3-3-10-101010-10-10-10-10-10-10-10-10-|
   . ... .   .     .      .  . . .  .     .        .

e --------------------------------------------------------|
b --------------------------------------------------------|
g --------------------------------------------------------|
d -8-888-8-8-8-8-8-8-8-8-0-000-0-0-0-0-0-0-0-0------------|
a -8-888-8-8-8-8-8-8-8-8-0-000-0-0-0-0-0-0-0-0------------|
d -8-888-8-8-8-8-8-8-8-8-0-000-0-0-0-0-0-0-0-0------------|
   . ... .   .     .     . ... .   .     .

e ---------------------------------------------------------|
b ---------------------------------------------------------|
g  --------------------------------------------------------|
d -3-333-3-3-3-3-3-3-3-3-10-101010-10-10-10-10-10-10-10-10-|
a -3-333-3-3-3-3-3-3-3-3-10-101010-10-10-10-10-10-10-10-10-|
d -3-333-3-3-3-3-3-3-3-3-10-101010-10-10-10-10-10-10-10-10-|
   . ... .   .     .      .  . . .  .     .        .

e ---------------------------------------------------------------|
b ---------------------------------------------------------------|
g ---------------------------------------------------------------|
d -8-8-8--8--8----0-0-0--0--0----3-3-3--3--3----10-10-10--10--10-|
a -8-8-8--8--8----0-0-0--0--0----3-3-3--3--3----10-10-10--10--10-|
d -8-8-8--8--8----0-0-0--0--0----3-3-3--3--3----10-10-10--10--10-|

e ----------------------------------------------------------------|
b ----------------------------------------------------------------|
g ----------------------------------------------------------------|
d -8-8-8--8--8----0-0-0--0--0----3-3-3--3--3----10-10-10--10--10~-|
a -8-8-8--8--8----0-0-0--0--0----3-3-3--3--3----10-10-10--10--10~-|
d -8-8-8--8--8----0-0-0--0--0----3-3-3--3--3----10-10-10--10--10~-|

Solo Part

e ---------------------------------------------------------|
b ---------------------------------------------------------|
g ---------------------------------------------------------|
d -8888888888888888-10101010101010101010101010101010-------|
a -8888888888888888-10101010101010101010101010101010-------|
d -8888888888888888-10101010101010101010101010101010-------|

e ---------------------------------------------------------|
b ---------------------------------------------------------|
g ---------------------------------------------------------|
d -0000000000000000-3333333333333333-----------------------|
a -0000000000000000-3333333333333333-----------------------|
d -0000000000000000-3333333333333333-----------------------|

e ---------------------------------------------------------|
b ---------------------------------------------------------|
g ---------------------------------------------------------|
d -8888888888888888-10101010101010101010101010101010-------|
a -8888888888888888-10101010101010101010101010101010-------|
d -8888888888888888-10101010101010101010101010101010-------|

e ---------------------------------------------------------|
b ---------------------------------------------------------|
g ---------------------------------------------------------|
d -0000000000000000-3333333333333333-----------------------|
a -0000000000000000-3333333333333333-----------------------|
d -0000000000000000-3333333333333333-----------------------|

e ---------------------------------------------------------|
b ---------------------------------------------------------|
g ---------------------------------------------------------|
d -8~------------------------------------------------------|
a -8~------------------------------------------------------|
d -8~------------------------------------------------------|

e ---------------------------------------------------------|
b ---------------------------------------------------------|
g ---------------------------------------------------------|
d -8-8--8-8-8-8--8-8--0-0--0-0-0-0--0-0--3-3--3-3-3-3--3-3-|
a -8-8--8-8-8-8--8-8--0-0--0-0-0-0--0-0--3-3--3-3-3-3--3-3-|
d -8-8--8-8-8-8--8-8--0-0--0-0-0-0--0-0--3-3--3-3-3-3--3-3-|
   . .  . . . .  . .  . .  . . . .  . .  . .  . . . .  . .

e ---------------------------------------------------------|
b ---------------------------------------------------------|
g ---------------------------------------------------------|
d -10-10--10-10-10-10--10-10-------------------------------|
a -10-10--10-10-10-10--10-10-------------------------------|
d -10-10--10-10-10-10--10-10-------------------------------|
    .  .   .  .  .  .   .  .

e ----------------------------------------------------------------|
b ----------------------------------------------------------------|
g ----------------------------------------------------------------|
d ----------------------------------------------------------------|
a ----------------------------------------------------------------|
d ----------------------------------------------------------------|

e ----------------------------------------------------------------|
b ----------------------------------------------------------------|
g ----------------------------------------------------------------|
d ----------------------------------------------------------------|
a ----------------------------------------------------------------|
d ----------------------------------------------------------------|

e ----------------------------------------------------------------|
b ----------------------------------------------------------------|
g ----------------------------------------------------5-5-5-7-7-7-|
d -8-8-8-x-x-8-8-8--0-0-0-x-x-0-0-0--3-3-3-x-x-3-3-3--x-x-x-x-x-x-|
a -8-8-8-x-x-8-8-8--0-0-0-x-x-0-0-0--3-3-3-x-x-3-3-3--3-3-3-5-5-5-|
d -8-8-8-x-x-8-8-8--0-0-0-x-x-0-0-0--3-3-3-x-x-3-3-3--------------|

e ----------------------------------------------------------------|
b ----------------------------------------------------------------|
g ----------------------------------------------------5-5-5-7-7-7-|
d -8-8-8-x-x-8-8-8--0-0-0-x-x-0-0-0--3-3-3-x-x-3-3-3--x-x-x-x-x-x-|
a -8-8-8-x-x-8-8-8--0-0-0-x-x-0-0-0--3-3-3-x-x-3-3-3--3-3-3-5-5-5-|
d -8-8-8-x-x-8-8-8--0-0-0-x-x-0-0-0--3-3-3-x-x-3-3-3--------------|

e ----------------------------------------------------------------|
b ----------------------------------------------------------------|
g ----------------------------------------------------5-5-5-7-7-7-|
d -8-8-8-x-x-8-8-8--0-0-0-x-x-0-0-0--3-3-3-x-x-3-3-3--x-x-x-x-x-x-|
a -8-8-8-x-x-8-8-8--0-0-0-x-x-0-0-0--3-3-3-x-x-3-3-3--3-3-3-5-5-5-|
d -8-8-8-x-x-8-8-8--0-0-0-x-x-0-0-0--3-3-3-x-x-3-3-3--------------|

e ----------------------------------------------------------------|
b ----------------------------------------------------------------|
g ----------------------------------------------------5-5-5-7-7-7-|
d -8-8-8-x-x-8-8-8--0-0-0-x-x-0-0-0--3-3-3-x-x-3-3-3--x-x-x-x-x-x-|
a -8-8-8-x-x-8-8-8--0-0-0-x-x-0-0-0--3-3-3-x-x-3-3-3--3-3-3-5-5-5-|
d -8-8-8-x-x-8-8-8--0-0-0-x-x-0-0-0--3-3-3-x-x-3-3-3--------------|

e ----------------------------------------------------------------|
b ----------------------------------------------------------------|
g ----------------------------------------------------------------|
d ----------------------------------------------------------------|
a ----------------------------------------------------------------|
d ----------------------------------------------------------------|

e ----------------------------------------------------------------|
b ----------------------------------------------------------------|
g ----------------------------------------------------------------|
d ----------------------------------------------------------------|
a ----------------------------------------------------------------|
d ----------------------------------------------------------------|

Chorus

e ---------------------------------------------------------------------|
b ---------------------------------------------------------------------|
g ---------------------------------------------------------------------|
d -8888888888888888-0000000000000000-8888888888888888-1010101010101010-|
a -8888888888888888-0000000000000000-8888888888888888-1010101010101010-|
d -8888888888888888-0000000000000000-8888888888888888-1010101010101010-|

e -----------------|
b -----------------|
g 10--10-10/12-12--|
d -x--x--x--x--x---|
a -8--8--8/10-10---|
d -----------------|

e ---------------------------------------------------------------------|
b ---------------------------------------------------------------------|
g ---------------------------------------------------------------------|
d -8888888888888888-0000000000000000-8888888888888888-1010101010101010-|
a -8888888888888888-0000000000000000-8888888888888888-1010101010101010-|
d -8888888888888888-0000000000000000-8888888888888888-1010101010101010-|

e -----------------|
b -----------------|
g 10--10-10/12-12--|
d -x--x--x--x--x---|
a -8--8--8/10-10---|
d -----------------|

End on

e -----------------|
b -----------------|
g -----------------|
d -8~--------------|
a -8~--------------|
d -8~--------------|
Related for September Solstice - Stars tab
Advertisement will be closed in 10 seconds