Song name
# A B C D E F G H I J K L M N O P Q R S T U V W X Y Z

Misc Unsigned Bands - Through The Haze - Deliver Us From Each Other tab

Intro: x2
92bpm
d------------------------------------------------------------------------------|
A------------------------------------------------------------------------------|
F-13t8x4-15t8-15t8-16t8-16t8-15t8x4-13t8x4-13t8x4-15t8-15t8-16t8-16t8-18t8x4---|
C------------------------------------------------------------------------------|
G------------------------------------------------------------------------------|
C------------------------------------------------------------------------------|

d-------------------------------------------------------------------------------|
A-------------------------------------------------------------------------------|
F-16t8-16t8-16t8-15t8--13~ <--last time-----------------------------------------|
C-------------------------------------------------------------------------------|
G-------------------------------------------------------------------------------|
C-------------------------------------------------------------------------------|

Harmony, 2nd time only
d------------------------------------------------------------------------------|
A-12t7x4-14t7-14t7-15t7-15t7-14t7x4-12t7x4-12t7x4-14t7-14t7-15t7-15t7-17t7x4---|
F------------------------------------------------------------------------------|
C------------------------------------------------------------------------------|
G------------------------------------------------------------------------------|
C------------------------------------------------------------------------------|

d------------------------------------------------------------------------------|
A-15t7-15t7-15t7-14t7-12~------------------------------------------------------|
F------------------------------------------------------------------------------|
C------------------------------------------------------------------------------|
G------------------------------------------------------------------------------|
C------------------------------------------------------------------------------|

Riff A (Verse)
d---------------------------------------------------------------------------------|
A---------------------------------------------------------------------------------|
F---------------------------------------------------------------------------------|
C---------------------------------------------------------------------------------|
G-----7----7---7-----6-----6---7-----4-----4---4-6p0-6p0-6p0-6p0-7p0-7p0-9p0-9p0--|
C-4-4--4-4---4---2-2---2-2---2---0-0---0-0---0------------------------------------|

d------------------------------------------------------------------------------|
A------------------------------------------------------------------------------|
F-----------------------------------------------------7-5-4--------------------|
C-----------------------------------------------------------7-5-4-7-5-4--------|
G-----7-----7---7-----6----6---7----4-----4---4----4--------------------7-5-4--|
C-4-4---4-4---4---2-2---2-2--2---0-0--0-0---0--0-0---0-------------------------|

Pre-Chorus:

69bpm
d---------------------------------------------------------------------------------|
A---------------------------------------------------------------------------------|
F---------------------------------------------------------------------------------|
C-9----11---12----11-----7-----9-----11----9-----5-----7-----9-----7-----4~-7~-6~-|
G-9-----9----9-----9-----7-----7-----7-----7-----5-----5-----5-----5-----4~-------|
C-9-9-9--9-9--9-9----9-9-7-7-7---7-7---7-7---7-7-5-5-5---5-5---5-5---5-5-4~-------|

Pre-Chorus Lead:
d-------------------------------------------------------------------------------------|
A-------------------------------------------------------------------------------------|
F-9-11-11p12-11-9-7~-7-9-9p11-11~-6-6-7-7p9-7-6-3~3-4-7-6-4-6-4---4-------------------|
C---------------------------------------------------------------7---7-6-7-6-4-6-4-----|
G---------------------------------------------------------------------------------5-7-|
C-------------------------------------------------------------------------------------|

Chorusx4

d-------------------------------------------------------------------------------|
A-----------------*---over last chord ---*--------------------------------------|
F----------------14-14-13-13-11-11-16-16-14-------------------------------------|
C-7----6----4-----x--x--x--x--x--x--x--x--x--7----6----4------------------------|
G-4-x4-2-x4-0-x8-12-12-11-11--9--9-14-14-12--4-x4-2-x4-0-x4---7---6---9---7p.h--|
C-4----2----0--------------------------------4----2----0----0---0---0---0-------|

Repeat:
Versex2
Pre-chorusx2
Chorusx3

4th chorus of second time:


d------------------------------------------------------------------------------|
A------------------------------------------------------------------------------|
F------------------------------------------------------------------------------|
C-7----6----4------4-----------------------------------------------------------|
G-4-x4-2-x4-0-x8---0-x8--------------------------------------------------------|
C-4----2----0------0-----------------------------------------------------------|

Bridge: x2
d------------------------------------------------------------------------------|
A------------------------------------------------------------------------------|
F--------------------------------------------6---7---4---6h7p6p4---------------|
C-2-------------2---4---5---4--4-----------------------------------------------|
G-2----------------------------4-----------------------------------------------|
C-2-2-2-2-2-2-2---2---2---2----4-4-4-4-4-4-4---4---4---4-----------------------|


d-----------------------------------------------------------|
A-----------------------------------------------------------|
F------------------------------2-------------4---5---4------|
C-2-------------2---4---5---4--2-------------------------5--|
G-2----------------------------0-0-0-0-0-0-0---0---0---0----|
C-2-2-2-2-2-2-2---2---2---2---------------------------------|
Tap to rate this tab
# A B C D E F G H I J K L M N O P Q R S T U V W X Y Z