Song name
# A B C D E F G H I J K L M N O P Q R S T U V W X Y Z

Misc Unsigned Bands - Dead Season - Fuck The Pain tab

This is a song from a band who's been winning battle of the band the last three years 
I have no idea why it's not been tabbed out yet but here's my shot at it

Drop C Tuning

Intro/ Verse
---------------------------------------|
---------------------------------------|
---------------------------------------|
----------------------------------3----|
--2------3p2------3p2------3p2----1----|
--2-x-xx-3p2-x-xx-3p2-x-xx-3p2-x-------|

Chorus
------------------    -------------------|
------------------    -------------------|
------------------    -------------------|
------------------ or -------------------|
---------------8--    -----3-----5----3--|
-22-22-22-22-xx8--    -22-23-22-25--223--|
                    ^
                    ^ < < < < < < < < < <
-------------------------               -- ^
-------------------------               -- ^
-------------------------               -- ^
-88888--88--88\-2222-----This goes here -- ^
-88888--88--88\-2222---------------------- ^(Played alternating
-88888--88--88\-2222---------------------- ^ between the 2)


Breakdown
----------------------- -----------------------|
----------------------- -----------------------|
----------------------- -----------------------|
----------------------- -----------------------|
----------------------- --532-532-532-532-/88--|
--532-532-532-532-/88-- --532-532-532-532-/88--|

-----------------------|
-----------------------|
-----------------------|
----------------3------|
------3-----5---1------|
--22-23-22-25-22-------|

-------------------------------------------|
-------------------------------------------|
-------4------5-----------4------7----5----|
-------------------7-----------------------|
-------2------3----0------2------5----3----|
--2222---2222---22---2222---2222---22------|

That's about it for the song, it's pretty sick
email me at zaaj@maine.rr.com, commetns welcome
Tap to rate this tab
# A B C D E F G H I J K L M N O P Q R S T U V W X Y Z