Song name
# A B C D E F G H I J K L M N O P Q R S T U V W X Y Z

Misc Unsigned Bands - Deceased Chamber - Blinded By My Sins tab

this band are amazing.   ther a new rising band who are looking to be signed.    this is 
the intro.

  any problems with the tab   contact me on sean_mitchell_833@hotmail.co.uk

intro


E ----------------------------------------|
B ----------------------------------------|
G ----------------------------------------|
D --7-7-7-7-7-7-7-7---9-9-9-9-9-9-9-9-----|
A --7-7-7-7-7-7-7-7---9-9-9-9-9-9-9-9-----|
E --5-5-5-5-5-5-5-5---7-7-7-7-7-7-7-7-----|


  --------------------------------------------------------|
  --------------------------------------------------------|
  --6-6------------------6--------------------------------|
  --6-6--6-6--7-7-7-7----6--6-6--9-9-9-9------------------|    X2
  --4-4--6-6--7-7-7-7----4--6-6--9-9-9-9------------------|
  -------4-4--5-5-5-5-------4-4--7-7-7-7------------------|
Tap to rate this tab
# A B C D E F G H I J K L M N O P Q R S T U V W X Y Z