Song name
# A B C D E F G H I J K L M N O P Q R S T U V W X Y Z

Misc Unsigned Bands - Flight 409 - Operator tab

Tuning:Drop D
 Verse
e|-----------------------------------------------------------------|  
B|--------7---------7---7-7-7-----------7---------7---7-7-7--------|   
G|--------7---------7---7-7-7-----------7---------7---7-7-7--------|    
D|--4-4---7---4-4---7---7-7-7-----5-5---7---5-5---7---7-7-7--------|    
A|--4-4-------4-4-----------------5-5-------5-5--------------------|    
D|--4-4-------4-4-----------------5-5-------5-5--------------------|    
                                                                      
e|-----------------------------------------------------------------|    
B|--------7---------7---7-7-7-----------7---------7---7-7-7--------|    
G|--------7---------7---7-7-7-----------7---------7---7-7-7--------|    
D|--7-7---7---7-7---7---7-7-7-----5-5---7---5-5---7---7-7-7--------|    
A|--7-7-------7-7-----------------5-5-------5-5--------------------|    
D|--7-7-------7-7-----------------5-5-------5-5--------------------|  

 Verse (Lead)
e|------------------------------------------------|
B|--15----14----15----------15----------15--------|
G|-----14----------14-16-------14----------14-16--|
D|--------------------------------14--------------|
A|------------------------------------------------|
E|------------------------------------------------|

 Pre-chorus                          1st ending
e|---------------------------------|----------------------------------| 
B|---------------------------------|----------------------------------|
G|---------------------------------|----------------------------------|
D|-5-5-5-5-5-5-5-5-5-5-5-5-5-5-5-5-|--4-4-4-4-4-4-4-4-4-4-4-4-4-4-4-4-|
A|-5-5-5-5-5-5-5-5-5-5-5-5-5-5-5-5-|--4-4-4-4-4-4-4-4-4-4-4-4-4-4-4-4-|
D|-5-5-5-5-5-5-5-5-5-5-5-5-5-5-5-5-|--4-4-4-4-4-4-4-4-4-4-4-4-4-4-4-4-|
pm . . . . . . . . . . . . . . . .    . . . . . . . . . . . . . . . .
  2nd ending
e|----------------------------------|
B|----------------------------------|
G|---------------------x-x-x-x------|
D|-5-5---5---5-5---5---x-x-x-x------|
A|-5-5---5---5-5---5---x-x-x-x------|
D|-5-5---5---5-5---5---x-x-x-x------|

 Chorus
e|-------------------------------------------------------------------------|
B|-------------------------------------------------------------------------|
G|---------------------------------------------------------------------xxxx|
D|-4-4-4-4-4-4-4-4-5-5-5-5-5-5-5-5-7-7-7-7-7-7-7-7-5-5---5---5-5---5---xxxx|
A|-4-4-4-4-4-4-4-4-5-5-5-5-5-5-5-5-7-7-7-7-7-7-7-7-5-5---5---5-5---5---xxxx|
D|-4-4-4-4-4-4-4-4-5-5-5-5-5-5-5-5-7-7-7-7-7-7-7-7-5-5---5---5-5---5---xxxx|

 Bridge
e|-------0-----------------0---------|
B|---3-------3---3-----3-----3---3---|
G|-2---2-------2-----2---2-----2-----|
D|-----------------------------------|
A|-----------------------------------|
D|-----------------------------------|
 Bridge (rythm)
e|---------------------------------------------------------------------|
B|---------------------------------------------------------------------|
G|---------------------------------------------------------------------|
D|-4-4-4-4-4-4-4-4-4-4-4-4-4-4-4-4--5-5-5-5-5-5-5-5-5-5-5-5-5-5-5-5----|
A|-4-4-4-4-4-4-4-4-4-4-4-4-4-4-4-4--5-5-5-5-5-5-5-5-5-5-5-5-5-5-5-5----|
D|-4-4-4-4-4-4-4-4-4-4-4-4-4-4-4-4--5-5-5-5-5-5-5-5-5-5-5-5-5-5-5-5----|
pm . . . . . . . . . . . . .   .    . . . . . . . . . . . . .   .  
e|---------------------------------------------------------------------|
B|---------------------------------------------------------------------|
G|---------------------------------------------------------------------|
D|-7-7-7-7-7-7-7-7-7-7-7-7-7-7-7-7--5-5-5-5-5-5-5-5-5-5-5-5-5-5-5-5----|
A|-7-7-7-7-7-7-7-7-7-7-7-7-7-7-7-7--5-5-5-5-5-5-5-5-5-5-5-5-5-5-5-5----|
D|-7-7-7-7-7-7-7-7-7-7-7-7-7-7-7-7--5-5-5-5-5-5-5-5-5-5-5-5-5-5-5-5----|
pm . . . . . . . . . . . . .   .    . . . . . . . . . . . . .   . 

 song order:Verse x2 (lead comes in second time)
            Pre-chorus
            Chorus x2
            Verse x2 (lead comes in second time)
            Pre-chorus
            Chorus x2
            Bridge x8 (rythm only x2)
            Chorus x3

   Ya there's some parts missing but come on bear with me
Tap to rate this tab
# A B C D E F G H I J K L M N O P Q R S T U V W X Y Z