Song name
# A B C D E F G H I J K L M N O P Q R S T U V W X Y Z

Misc Unsigned Bands - Parasyde - Doubtful And Forgiven tab

Yeah, for anybody familiar with the Whittier based band Parasyde, (which broke up
months ago) here is the grand finale song, Doubtful And Forgiven. This tab is 100% correct,
I am the one that wrote most of the songs. These tabs, however, are from the recorded 
in February of 2007, just before the band broke up, and very few people got to hear
But, for someone who has the Live @ Hogue Barmichaels C.D., it should be easy to understand.

Key of E Minor

Guitar 1- Tony Alley (Lead)
Guitar 2-Brandon Jimenez (Rhythm)
Guitar 3-Tony Alley (Lead+Rhythm)


Intro- Guitar 1
E----------------------|
B----------------------|
G----------------------|     4x
D----4----4------------|
A-22-2-22-2-222-2------|
D-22-2-22-2-222-2------|

E------------------|
B-----555----555---|
G-----444----444---|
D-222-222-22-222---|  5x
A-222-222-22-222---|
D-222-222-22-222---|


Guitar 1
E---------------------|-------------------|
B---------------------|-------------------|
G---------------------|-------------------|
D-22-2-4-5-/7-5-4-5p0|-222-2-4-5-/7-------|
A-22------------------|-222----------5-3--|
D-22--2-2-2-----------|-222-2-2-2---------|

Guitar 2                                                                    2x
E----------------------|----------------|
B----------------------|----------------|
G----------------------|----------------|
D-22-------------------|-222------------|
A-22-------------------|-222------------|
D-22-------------------|-222------------|

Main Riff

Guitar 1
E---------------------|-------------------|
B---------------------|-------------------|
G---------------------|-------------------|
D-22-2-4-5-/7-5-4-5p0|-222-2-4-5-/7-------|
A-22------------------|-222----------5-3--|
D-22--2-2-2-----------|-222-2-2-2---------|


Guitar 2
E--------------------|-------------------|
B--------------------|-------------------|
G----0-2-4-5-4-2-4p0|-----0-2-4-5--------|
D-22-----------------|-222---------3-2---|
A-22-----------------|-222---------------|
D-22--2-2-2----------|-222---------------|

Guitar 3
E-------------------|-------------------------|
B-------------------|-------------------------|
G-------------------|-------------------------|
D-2222222222222222-|-101010101010109999-------|
A-2222222222222222-|-101010101010109999-------|
D-2222222222222222-|-101010101010109999-4-----|

Verse (All Guitars)
E-------------------------------------------------------------------|
B-------------------------------------------------------------------|
G-------------------------------------------------------------------|
D-2-xxx-2-xxxx-2-xx-5-xxx-5-xxxx-5-xx-4-xxx-4-xxxx-4-xx-222---------|
A-2-xxx-2-xxxx-2-xx-5-xxx-5-xxxx-5-xx-4-xxx-4-xxxx-4-xx-222---------|
D-2-xxx-2-xxxx-2-xx-5-xxx-5-xxxx-5-xx-4-xxx-4-xxxx-4-xx-222-0-4-----|

Solo

E--------------------------------875-------5---14-12-10-15-14-12-8-7-5-12-10-8----|
B-----------------------------------875---5--5------------------------------------|
G-------45454545-0h2h4h5-7-5-4-------7b9------------------------------------------|
D----7-9--------------------------------------------------------------------------|
A-7-9-----------------------------------------------------------------------------|
D---------------------------------------------------------------------------------|

E-3-2-0--------3-2-0--------2-3-2-3-3-5-3-5-5-7-5-7-7-8-7-8--------15-14-12----|
B-------3-/5-3-------3-/5-3---------------------------------------10-----------|
G---------------------------------------------------------------11-------------|
D--------------------------------------------------------------7 --------------|
A-------------------------------------------------------------7----------------|
D------------------------------------------------------------------------------|

E-17-15-14-14-12-10-/12----------------------------------------------------------|
B-----------------------13-------------------------------------------------------|
G-------------------------14-11-12-14-17-16-14------------15---------------------|
D----------------------------------------------------15-17---17-------------15---|
A-----------------------------------------------15-17-----------15-17-14-15------|
D--------------------------------------------------------------------------------|

E---------------------------------------------15141215141215141215141215121214----|
B---------------------------------------------------------------------------------|
G-17b19-17-15-17-15-14-15-14-9----------------------------------------------------|
D--------------------------------14-16-16-17--------------------------------------|
A---------------------------------------------------------------------------------|
D---------------------------------------------------------------------------------|

E-/20-18-17-15-14-10-0---|
B------------------------|
G------------------------|
D------------------------|
A------------------------|
D------------------------|

Rhythm
E-------------------|-------------------------|
B-------------------|-------------------------|
G-------------------|-------------------------|
D-2222222222222222-|-101010101010109999-------|
A-2222222222222222-|-101010101010109999-------|
D-2222222222222222-|-101010101010109999-4-----|

Bridge After The Solo (All Guitars)
E---------------------------------------------|
B---------------------------------------------|
G---------------------------------------------|
D-2222222222222222/101010101010101010101010|
A-2222222222222222/101010101010101010101010|
D-2222222222222222/101010101010101010101010|

Outro (All Guitars)
E-------------------------------------------|
B-------------------------------------------|
G-------------------------------------------|
D-222~----/101010~---222~---/10~~---2~h0----|
A-222~----/101010~---222~---/10~~---2~h0----|
D-222~----/101010~---222~---/10~~---2~h0----|

Key;
~= Let Ring
*= Harmonic
h= Hammer
p= Pull
/= Slide
Song Order;
Intro
Main Riff
Verse
Main Riff
Verse
Main Riff
Solo
Bridge
Main Riff
Outro

Very Simple, Very Straightforward. Have Fun. R.I.P. Parasyde.
Tap to rate this tab
 
# A B C D E F G H I J K L M N O P Q R S T U V W X Y Z