Song name
# A B C D E F G H I J K L M N O P Q R S T U V W X Y Z

Misc Unsigned Bands - Distorted - Redemption tab

Fade in-

G --2--
D --2--
A --0--

Intro: (X2)
E--------------------------------------------|
B--------------------------------------------|
G--------------------------------------------|
D--------------------------------------------|
A-0--0-0-0-0-8-7-5---------------------------|
E-----------------0--0-0-0-0-0--0--0-0-0-0-0-|

E-------------------------------------------|
B-------------------------------------------|
G-------------------------------------------|
D-------------------------------------------|
A-0--0-0-0-0-8-7-5--------------------------|
E-----------------1--1-1-1--0-1-3-----------|

0:19-0:54

E--------------------------------------------------|
B--------------------------------------------------|
G--------------------------------------------------|
D--------------------------------------------------|
A-0--0-0-0-0--0-0-0-0------------------------------|
E----------------------0--0-0-0-0-0--0--0-0-0-0-0--|


E--------------------------------------------------|
B--------------------------------------------------|
G--------------------------------------------------|
D--------------------------------------------------|
A-0--0-0-0-0--0-0-0-0------------------------------|
E----------------------1--1-1-1-0-1-3--------------|

Transition(0:37)


E--------------------------------------------------|
B--------------------------------------------------|
G---2----------------------------------------------|
D--2-3-2-0-----------------------------------------|
A-0--------0-2-3-5-0-2-3-5-------------------------|
E--------------------------------------------------|

0:54-1:20


E--------------------------------------------------|
B--------------------------------------------------|
G--------------------------------------------------|
D--------------------------------------------------|
A-0--0-0-0-3-2-------------------------------------|
E---------------0--0-0-0-1-4-----------------------|


E--------------------------------------------------|
B--------------------------------------------------|
G--------------------------------------------------|
D--------------------------------------------------|
A-3--3-3-3-7-5-------------------------------------|
E---------------0--0-0-0-1-4-----------------------|


Full Song coming soon
Tap to rate this tab
# A B C D E F G H I J K L M N O P Q R S T U V W X Y Z