Song name
# A B C D E F G H I J K L M N O P Q R S T U V W X Y Z

Misc Unsigned Bands - Dying Day - Screaming Through The Night tab

Help us improve GuitareTab! Take a short survey!
guitar 2
e|---------------------------------------------------------------------------|
B|-------0-----------0-----------0----------0-----------0-----------0--------|
G|-----0---0-------0---0-------0---0------0---0-------0---0-------0---0------|
D|---9-------9---9-------9---5-------5---5------5---4-------4---4-------4----|
A|-7-----------7-----------3-----------3----------2-----------2-----------2--|
E|---------------------------------------------------------------------------|

guitar 2 (cont.)      x2
e|---------------------------------------------------------------------------|
B|-------0-----------0-----0-------------------------------------------------|
G|-----0---0-------0---0---0-------------------------------------------------|
D|---7-------7---7-------7-3-------------------------------------------------|
A|-5-----------5-----------5-------------------------------------------------|
E|---------------------------------------------------------------------------|

verse1
guitar 2
e|---------------------------------------------------------------------------|
B|------0-----------0-----------0-----------0-----------0----------0---------|
G|----0---0-------0---0-------0---0-------0---0-------0---0------0---0-------|
D|--5-------5---5-------0---9-------9---9-------9---3-------3--3-------3-----|
A|-3----------3-----------7-----------7-----------2----------2---------------|
E|---------------------------------------------------------------------------|
                           x2
e|---------------------------------------------------------------------------|
B|-------0-----------0-------(0)---------------------------------------------|
G|-----0---0-------0---0-----(0)---------------------------------------------|
D|---7-------7---7-------7---(7)---------------------------------------------|
A|-5-----------5-----------5-(5)---------------------------------------------|
E|---------------------------------------------------------------------------|


guitar 1
e|---------------------------------------------------------------------------|
B|-------0-----------0-----------0----------0-----------0-----------0--------|
G|-----0---0-------0---0-------0---0------0---0-------0---0-------0---0------|
D|---9-------9---9-------9---5-------5---5------5---4-------4---4-------4----|
A|-7-----------7-----------3-----------3----------2-----------2-----------2--|
E|---------------------------------------------------------------------------|

guitar 1 (cont.)      x2
e|------------------------------------------------------------------------------|
B|-------0-----------0------(0)-------------------------------------------------|
G|-----0---0-------0---0----(0)-------------------------------------------------|
D|---7-------7---7-------7--(3)-------------------------------------------------|
A|-5-----------5----------5-(5)-------------------------------------------------|
E|------------------------------------------------------------------------------|

bridge
guitar 1&2
   x x    x x    x x    x x     x x     x x    x x    x x
e|---------------------------------------------------------------------------|
B|---------------------------------------------------------------------------|
G|---------------------------------------------------------------------------|
D|-5-5-5--5-5-5--5-5-5--5-5-5-s--9-9-9--9-9-9--9-9-9--9-9-9------------------|
A|-3-3-3--3-3-3--3-3-3--3-3-3-s--7-7-7--7-7-7--7-7-7--7-7-7------------------|
E|---------------------------------------------------------------------------|
   x x    x x    x x    x x                                         +
e|---------------------------------------------------------------------------|
B|---------------------------------------------------------------------------|
G|-----------------------------------------------------------------(5)-------|
D|-4-4-4--4-4-4--4-4-4--4-4-4-s-7-7-7--7-7-7--7-7-7--7-7-7-------------------|
A|-2-2-2--2-2-2--2-2-2--2-2-2-s-5-5-5--5-5-5--5-5-5--5-5-5-------------------|
E|---------------------------------------------------------------------------|
                                x x    x x    x x    x x

  x x    x x    x x    x x      x x    x x    x x    x x
e|---------------------------------------------------------------------------|
B|---------------------------------------------------------------------------|
G|---------------------------------------------------------------------------|
D|-5-5-5--5-5-5--5-5-5--5-5-5-s--9-9-9--9-9-9--9-9-9--9-9-9------------------|
A|-3-3-3--3-3-3--3-3-3--3-3-3-s--7-7-7--7-7-7--7-7-7--7-7-7------------------|
E|---------------------------------------------------------------------------|
  x x    x x    x x    x x      x x   x x    x x    x x           +
e|---------------------------------------------------------------------------|
B|---------------------------------------------------------------------------|
G|-----------------------------------------------------------------(3)-------|
D|-4-4-4--4-4-4--4-4-4--4-4-4-s-7-7-7--7-7-7--7-7-7--7-7-7-------------------|
A|-2-2-2--2-2-2--2-2-2--2-2-2-s-5-5-5--5-5-5--5-5-5--5-5-5-------------------|
E|---------------------------------------------------------------------------|
                                               x2
e|---------------------------------------------------------------------------|
B|---------------------------------------------------------------------------|
G|---------------------------------------------------------------------------|
D|-5-5-5-5-5--7-7-7-7-7--9-9-9-9-9-9-9-9-9-9---------------------------------|
A|-3-3-3-3-3--5-5-5-5-5--7-7-7-7-7-7-7-7-7-7---------------------------------|
E|---------------------------------------------------------------------------|

chours
e|---------------------------------------------------------------------------|
B|---------------------------------------------------------------------------|
G|---------------------------------------------------------------------------|
D|--9-9-9-9-9-9-9-9-9-9-9-9--5-5-5-5-5-5-5-5-5-5-5-5--7-7-7-7-7-7-7-7-7-7-7-7|
A|--7-7-7-7-7-7-7-7-7-7-7-7--3-3-3-3-3-3-3-3-3-3-3-3--5-5-5-5-5-5-5-5-5-5-5-5|
E|---------------------------------------------------------------------------|
                            x2
e|---------------------------------------------------------------------------|
B|---------------------------------------------------------------------------|
G|---------------------------------------------------------------------------|
D|4-4-4-4-4-4-4-4-4-4-4-4----------------------------------------------------|
A|2-2-2-2-2-2-2-2-2-2-2-2----------------------------------------------------|
E|---------------------------------------------------------------------------|

e|---------------------------------------------------------------------------|
B|---------------------------------------------------------------------------|
G|---------------------------------------------------------------------------|
D|-4-4-4--3-3-3-5--3-3-3-7-7-7-7-3-7-----------------------------------------|
A|-2-2-2--3-3-3-5--3-3-3-7-7-7-7-3-7-----------------------------------------|
E|---------------------------------------------------------------------------|

verse1
guitar 2
e|---------------------------------------------------------------------------|
B|------0-----------0-----------0-----------0-----------0----------0---------|
G|----0---0-------0---0-------0---0-------0---0-------0---0------0---0-------|
D|--5-------5---5-------0---9-------9---9-------9---3-------3--3-------3-----|
A|-3----------3-----------7-----------7-----------2----------2---------------|
E|---------------------------------------------------------------------------|
                           x2
e|---------------------------------------------------------------------------|
B|-------0-----------0-------(0)---------------------------------------------|
G|-----0---0-------0---0-----(0)---------------------------------------------|
D|---7-------7---7-------7---(7)---------------------------------------------|
A|-5-----------5-----------5-(5)---------------------------------------------|
E|---------------------------------------------------------------------------|


guitar 1
e|---------------------------------------------------------------------------|
B|-------0-----------0-----------0----------0-----------0-----------0--------|
G|-----0---0-------0---0-------0---0------0---0-------0---0-------0---0------|
D|---9-------9---9-------9---5-------5---5------5---4-------4---4-------4----|
A|-7-----------7-----------3-----------3----------2-----------2-----------2--|
E|---------------------------------------------------------------------------|

guitar 1 (cont.)      x2
e|------------------------------------------------------------------------------|
B|-------0-----------0------(0)-------------------------------------------------|
G|-----0---0-------0---0----(0)-------------------------------------------------|
D|---7-------7---7-------7--(3)-------------------------------------------------|
A|-5-----------5----------5-(5)-------------------------------------------------|
E|------------------------------------------------------------------------------|

bridge
guitar 1&2
   x x    x x    x x    x x     x x     x x    x x    x x
e|---------------------------------------------------------------------------|
B|---------------------------------------------------------------------------|
G|---------------------------------------------------------------------------|
D|-5-5-5--5-5-5--5-5-5--5-5-5-s--9-9-9--9-9-9--9-9-9--9-9-9------------------|
A|-3-3-3--3-3-3--3-3-3--3-3-3-s--7-7-7--7-7-7--7-7-7--7-7-7------------------|
E|---------------------------------------------------------------------------|
   x x    x x    x x    x x                                         +
e|---------------------------------------------------------------------------|
B|---------------------------------------------------------------------------|
G|-----------------------------------------------------------------(5)-------|
D|-4-4-4--4-4-4--4-4-4--4-4-4-s-7-7-7--7-7-7--7-7-7--7-7-7-------------------|
A|-2-2-2--2-2-2--2-2-2--2-2-2-s-5-5-5--5-5-5--5-5-5--5-5-5-------------------|
E|---------------------------------------------------------------------------|
                                x x    x x    x x    x x

  x x    x x    x x    x x      x x    x x    x x    x x
e|---------------------------------------------------------------------------|
B|---------------------------------------------------------------------------|
G|---------------------------------------------------------------------------|
D|-5-5-5--5-5-5--5-5-5--5-5-5-s--9-9-9--9-9-9--9-9-9--9-9-9------------------|
A|-3-3-3--3-3-3--3-3-3--3-3-3-s--7-7-7--7-7-7--7-7-7--7-7-7------------------|
E|---------------------------------------------------------------------------|
  x x    x x    x x    x x      x x   x x    x x    x x           +
e|---------------------------------------------------------------------------|
B|---------------------------------------------------------------------------|
G|-----------------------------------------------------------------(3)-------|
D|-4-4-4--4-4-4--4-4-4--4-4-4-s-7-7-7--7-7-7--7-7-7--7-7-7-------------------|
A|-2-2-2--2-2-2--2-2-2--2-2-2-s-5-5-5--5-5-5--5-5-5--5-5-5-------------------|
E|---------------------------------------------------------------------------|
                                               x2
e|---------------------------------------------------------------------------|
B|---------------------------------------------------------------------------|
G|---------------------------------------------------------------------------|
D|-5-5-5-5-5--7-7-7-7-7--9-9-9-9-9-9-9-9-9-9---------------------------------|
A|-3-3-3-3-3--5-5-5-5-5--7-7-7-7-7-7-7-7-7-7---------------------------------|
E|---------------------------------------------------------------------------|

chours
e|---------------------------------------------------------------------------|
B|---------------------------------------------------------------------------|
G|---------------------------------------------------------------------------|
D|--9-9-9-9-9-9-9-9-9-9-9-9--5-5-5-5-5-5-5-5-5-5-5-5--7-7-7-7-7-7-7-7-7-7-7-7|
A|--7-7-7-7-7-7-7-7-7-7-7-7--3-3-3-3-3-3-3-3-3-3-3-3--5-5-5-5-5-5-5-5-5-5-5-5|
E|---------------------------------------------------------------------------|
                            x2
e|---------------------------------------------------------------------------|
B|---------------------------------------------------------------------------|
G|---------------------------------------------------------------------------|
D|4-4-4-4-4-4-4-4-4-4-4-4----------------------------------------------------|
A|2-2-2-2-2-2-2-2-2-2-2-2----------------------------------------------------|
E|---------------------------------------------------------------------------|

e|-----------------------------------------------------------------------------|
B|-----------------------------------------------------------------------------|
G|-----------------------------------------------------------------------------|
D|-4-4-4--3-3-3-5--3-3-3-7-7-7-7-3-7-------------------------------------------|
A|-2-2-2--3-3-3-5--3-3-3-7-7-7-7-3-7-------------------------------------------|
E|-----------------------------------------------------------------------------|

solo
guitar1
e|---------------------------------------------------------------------------|
B|-12-10-12-10-12-10-12--14-14-15-17-15-14-14-14-12-12-12-10-12-14-12-14-----|
G|---------------------------------------------------------------------------|
D|---------------------------------------------------------------------------|
A|---------------------------------------------------------------------------|
E|---------------------------------------------------------------------------|

e|---------------------------------------------------------------------------|
B|15-14-12-10-s14-12-12--14-15-14-14-15-17-19-19b-17------------------15-17--|
G|-----------------------------------------------------------14-16-17--------|
D|---------------------------------------------------14-16-17----------------|
A|---------------------------------------------------------------------------|
E|---------------------------------------------------------------------------|

e|---------------------------------------------------------------------------|
B|--22-20-19-20-19-17-19-24-24b-22-20-22-24-22-20-19-20-17-17-19-19b-17-15-17|
G|---------------------------------------------------------------------------|
D|---------------------------------------------------------------------------|
A|---------------------------------------------------------------------------|
E|---------------------------------------------------------------------------|

e|---------------------------------------------------------------------------|
B|-15-14-15-14-10-14-10-12--12-12-12-12-12-14-14-14-14-14-15-15-15-15-15-----|
G|---------------------------------------------------------------------------|
D|---------------------------------------------------------------------------|
A|---------------------------------------------------------------------------|
E|---------------------------------------------------------------------------|

e|---------------------------------------------------------------------------|
B|-17-17-17-17-17--17-19-19b-19-15-17-15-14-15-14-12-14-10-14-10-12----------|
G|---------------------------------------------------------------------------|
D|---------------------------------------------------------------------------|
A|---------------------------------------------------------------------------|
E|---------------------------------------------------------------------------|

rythem guitar 2 x4
  x x    x x    x x    x x
e|---------------------------------------------------------------------------|
B|---------------------------------------------------------------------------|
G|---------------------------------------------------------------------------|
D|-5-5-5--5-5-5--5-5-5--5-5-5-s--9-9-9--9-9-9--9-9-9--9-9-9------------------|
A|-3-3-3--3-3-3--3-3-3--3-3-3-s--7-7-7--7-7-7--7-7-7--7-7-7------------------|
E|---------------------------------------------------------------------------|
                                                                    +
e|---------------------------------------------------------------------------|
B|---------------------------------------------------------------------------|
G|-----------------------------------------------------------------(3)-------|
D|-4-4-4--4-4-4--4-4-4--4-4-4-s-7-7-7--7-7-7--7-7-7--7-7-7-------------------|
A|-2-2-2--2-2-2--2-2-2--2-2-2-s-5-5-5--5-5-5--5-5-5--5-5-5-------------------|
E|---------------------------------------------------------------------------|

both guitars x2
|----------------------------------------------------------------------------|
B|---------------------------------------------------------------------------|
G|---------------------------------------------------------------------------|
D|-5-5-5-5-5--7-7-7-7-7--9-9-9-9-9-9-9-9-9-9---------------------------------|
A|-3-3-3-3-3--5-5-5-5-5--7-7-7-7-7-7-7-7-7-7---------------------------------|
E|---------------------------------------------------------------------------|

guitar 2
e|---------------------------------------------------------------------------|
B|-------0-----------0-----------0----------0-----------0-----------0--------|
G|-----0---0-------0---0-------0---0------0---0-------0---0-------0---0------|
D|---9-------9---9-------9---5-------5---5------5---4-------4---4-------4----|
A|-7-----------7-----------3-----------3----------2-----------2-----------2--|
E|---------------------------------------------------------------------------|

guitar 2 (cont.)      x2
e|---------------------------------------------------------------------------|
B|-------0-----------0-----0-------------------------------------------------|
G|-----0---0-------0---0---0-------------------------------------------------|
D|---7-------7---7-------7-3-------------------------------------------------|
A|-5-----------5-----------5-------------------------------------------------|
E|---------------------------------------------------------------------------|
Related for Dying Day - Screaming Through The Night tab