Song name
# A B C D E F G H I J K L M N O P Q R S T U V W X Y Z

Misc Unsigned Bands - The Ramblers - Down The Pub tab

----------------------------------------------------------------------------
			  Down The Pub - The Ramblers
----------------------------------------------------------------------------
Tabbed by: James Lees

Tuning: Standard

Listen to the song to work out the rhythm

Intro/Verse
e|-7--7--------------------------------------------------------------------|
B|-8--7--------------------------------------------------------------------|
G|-9--8--------------------------------------------------------------------|
D|-------------------------------------------------------------------------|
A|-------------------------------------------------------------------------|
E|-------------------------------------------------------------------------|


Chorus
e|-------------------------------------------------------------------------|
B|-------------------------------------------------------------------------|
G|-9-----12----------------------------------------------------------------|
D|-9--9--12----------------------------------------------------------------|
A|-7--9--10----------------------------------------------------------------|
E|----7--------------------------------------------------------------------|

Thats pretty much it

============================================================================
Tap to rate this tab
# A B C D E F G H I J K L M N O P Q R S T U V W X Y Z