Guitaretab - guitar tabs
Song name
# A B C D E F G H I J K L M N O P Q R S T U V W X Y Z

Misc Unsigned Bands - Splooge - Shun The Tickle tab

Verse

E----------------------------|
B-------2--------------------|
G-------2--------------------|   Repeat 8 times
D-2--5--2--2-----------------|
A-2--5----2-----------------|
E-0--3----0-0-0-0-0-0-0-0---|
Pre-Chorus

E---------------------------------------------|
B-------2------2------2---2---2---------------|
G-------2------2------2---2---2---------------|
D-2--5--2--2---2--2---2-2-2-2-2-2-2-2-2-2-2-2-|
A-2--5-----2------2-----2---2---2-2-2-2-2-2-2-|
E-0--3-----0-0----0-0---0---0---0-0-0-0-0-0-0-|


Chorus

E-2-2-0----------------------|
B-3-3-0-2-2------------------|
G-2-2-0-2-2------------------|  x 3
D-----0-2-2-2----------------|
A-----x-----2----------------|
E-----x-----0--0-0-0-0-0-0-0-|


E-2-2-0-----4--|
B-3-3-0-2-2-5--|
G-2-2-0-2-2-4--|  last time
D-----0-2-2----|
A-----x--------|
E-----x--------|

Solo
[ Tab from: http://www.guitaretab.com/m/misc-unsigned-bands/94018.html ]
E-7-5-4-0---7-5-4-0-|
B-------------------|
G-------------------|
D-------------------|
A-------------------|
E-------------------|

E----------------------------|
B----------------------------|
G-19b20b19-19-18-16----------|
D-------------------19-18-16-|
A----------------------------|
E----------------------------|


E------12------12------12-|
B----12------12------12---|
G-b14-----b14-----b14-----|
D-------------------------|
A-------------------------|
E-------------------------|

E-12h15p12---12--------------|
B----------12--15-12---------|
G-------------------14-12----|
D-------------------------14-|
A----------------------------|
E----------------------------|

E------------------|
B------------------|
G------------------|
D-14-14-14------12-|
A-14-14-14-12h14---|
E-12-12-12---------|


Verse
Pre-Chorus
Chorus
Verse
Pre-Chorus
Chorus
Solo
Chorus till end
Related for Splooge - Shun The Tickle tab