Song name
# A B C D E F G H I J K L M N O P Q R S T U V W X Y Z

Misc Unsigned Bands - Sleeping Angel - Thunder In The Air tab

Although I am sleeping angel, this song was actually written by my cousin.
I think this song is really cool!!! Sorry that the beginning's in tabs!!! it's really simple though.

INTRO-(keep these notes in rythym)
E|-0---------0-------0----|
B|------------------------|
G|------------------------|
D|------------------------|
A|------------------------|
E|------------------------|

VERSE-(keep these notes in rythym)
E|0--------------0--------------0-----------0---------|
B|----------------------------------------------------|
G|----------------------------------------------------|
D|----------------------------------------------------|
A|----------------------------------------------------|
E|----------------------------------------------------|
  Thunder in the Air

E|0--------------0--------------0-----------0---------|
B|0--------------0--------------0-----------0---------|
G|----------------------------------------------------|
D|----------------------------------------------------|
A|----------------------------------------------------|
E|----------------------------------------------------|
  Lighting in the moon

no one to rescue you


Am Am              Am Am        AmAm Am     Am Am     Am
      Nobody cares       Nobody understands why you're there

Am(strum)

Am                       Em
Shadows cover the ground Warns you all the days of life

AmAmAm

Am  Am    Am
Thunder's here
Am  Am   Am   Em Em
And then it's there
Am   Am   Am
Lightning comes
Am  Am   Am   Em
And then it   goes
Em Em   Em  Em      Em Em    
E
running but there's no place to go

Am   Am  Am    Am   Am  Am
What happened? What happened?
Em    Em  Em E    Em    Em  Em E
Where are we now? Where are we now?
(Repeat 1x)

Repeat whole song 1x

Am  Am    Am
Thunder's here
Am  Am   Am   Em Em
And then it's there
Am   Am   Am
Lightning comes
Am  Am   Am   Em
And then it   goes
Em Em   Em  Em      Em Em    
E
running but there's no place to go

Am   Am  Am    Am   Am  Am
What happened? What happened?
Em    Em  Em E    Em    Em  Em E
Where are we now? Where are we now?

E|-0---------0-------0----|
B|------------------------|
G|------------------------|
D|------------------------|
A|------------------------|
E|------------------------|

E|0--------------0-|(<-Let it ring out)
B|-----------------|
G|-----------------|
D|-----------------|
A|-----------------|
E|-----------------|
  Thunder in the Air
Tap to rate this tab
# A B C D E F G H I J K L M N O P Q R S T U V W X Y Z