Song name
# A B C D E F G H I J K L M N O P Q R S T U V W X Y Z

Misc Unsigned Bands - Thelema - The Absence tab

INTRO

E-------------------------|-------------|-------------|
B-------------------------|-------------|-------------|
G-------------------------|-------------|-------------|
D-------------------------|-14-14-14-14-|-------------|  x4
A-16-16-16-16-16-16-16-16-|-12-12-12-12-|-14-14-14-14-|
E-14-14-14-14-14-14-14-14-|-------------|-12-12-12-12-|

VERSE

E-------------------------|-------------------------|---------|
B-------------------------|-------------------------|---------|
G-------------------------|-------------------------|---------|
D-------------------------|-14-14-14-14-------------|---------|
A-16-16-16-16-16-16-16-16-|-12-12-12-12-14-14-14-14-|-12------|
E-14-14-14-14-14-14-14-14-|-------------12-12-12-12-|-10-(x16)|

E-------------------------|-------------------------|----------------|
B-------------------------|-------------------------|----------------|
G-------------------------|-------------------------|----------------|
D-------------------------|-14-14-14-14-------------|----------------|
A-16-16-16-16-16-16-16-16-|-12-12-12-12-14-14-14-14-|-12-----11------|
E-14-14-14-14-14-14-14-14-|-------------12-12-12-12-|-10-(x8)-9-(x8)-|

PRE CHORUS

E-----------------|-------------------------|
B-----------------|-------------------------|
G-----------------|-------------------------|
D-----------------|-------------------------| x2
A-9-9-9-9-9-9-9-9-|-11-11-11-11-11-11-11-11-|
E-7-7-7-7-7-7-7-7-|--9--9--9--9--9--9--9--9-|

CHORUS

E-------------------------|-------------------------|
B-------------------------|-------------------------|
G-------------------------|-------------------------|
D-------------------------|-------------------------|
A-16-16-16/14-14-14-14-14-|-11-11-11/12-12-12-12-12-|
E-14-14-14/12-12-12-12-12-|--9--9--9/10-10-10-10-10-|

E-------------------------|-------------------------|
B-------------------------|-------------------------|
G-------------------------|-------------------------|
D-------------------------|-13-13-13/14-14-14-14-14-|
A-16-16-16/14-14-14-14-14-|-11-11-11/12-12-12-12-12-|
E-14-14-14/12-12-12-12-12-|-------------------------|

E-------------------------|-------------------------|
B-------------------------|-------------------------|
G-------------------------|-------------------------|
D-------------------------|-------------------------|
A-16-16-16/14-14-14-14-14-|-11-11-11/12-12-12-12-12-|
E-14-14-14/12-12-12-12-12-|--9--9--9/10-10-10-10-10-|

E-------------------------|-------------------------|
B-------------------------|-------------------------|
G-------------------------|-------------------------|
D-------------------------|-------------------------|
A-11-11-11-11-11-11-11-11-|-11-11-11-11-11-11-11-11-|
E--9--9--9--9--9--9--9--9-|--9--9--9--9--9--9--9--9-|


2ND VERSE


CHORUS


3RD VERSE PALM-MUTED


CHORUS X2




Lyrics:

Everyone that disagrees with me is right
Do they feel better?
Falling down is such a thrill for me tonight
We all fall down and
Little boys will try to join the fight
Their friends are dying
Seeing things in such a different light
But we're all lying

Lost again, we'll make it through this
Tried and true, try try try
We can try and make them do this
But all they'll do is cry cry cry

Showing off our different faces left and right
It's so exciting
I can almost taste the very sight
It's so inviting
Just what makes you think you have the right?
You're always sighing
Waking up in the middle of the night
With the children crying

Lost again, we'll make it through this
Tried and true, try try try
We can try and make them do this
But all they'll do is cry cry cry

Everyone that disagrees with me is right
Do they feel better?
Falling down is such a thrill for me tonight
We all fall down and
Little boys will try to join the fight
Their friends are dying
Seeing things in such a different light
But we're all lying

Lost again, we'll make it through this
Tried and true, try try try
We can try and make them do this
But all they'll do is cry cry cry
All they'll do is cry cry cry








And you're done! Yay you!
Thanks
Tap to rate this tab
 
# A B C D E F G H I J K L M N O P Q R S T U V W X Y Z